Guitaretab - guitar tabs
Song name
# A B C D E F G H I J K L M N O P Q R S T U V W X Y Z

Yankee Grey - All Things Considered tab

key: D
Capo 1st Fret
(Chorus)
D
All things considered I'm doing just fine
Even though you left a hole the size of Texas deep inside
My heart, the way I feel I should be losing my mind
                          G F# G
But all things considered          Iím doing just fine

**D D B C D D B C C-B-A-G-F#-E-F#-G

(Verse 1)
A                 F#        G                        (riff)
Woke up this morning to the sound of you slamming the door

A                            F#    G
I got served a piece of paper for breakfast that said

(riff)
You don't live here no more
         A
And the dog won't let me pet him
F#        G                               (riff)
He just lays around and growls at my feet
        A          F#    G
Yeah the paper boy got me again
G  F#         E         F#   G A
I should have stayed in bed asleep

(Chorus)
D                         A
All things considered I'm doing just fine
     C                                 G
Even though you left a hole the size of Texas deep inside
   D                                 A
My heart, the way I feel I should be losing my mind
[ Tab from: http://www.guitaretab.com/y/yankee-grey/84246.html ]
    C                      G F# G
But all things considered          Iím doing just fine


(Verse 2)
Well my car broke down again right be-fore it ran out of gas
Yeah my boss is still ringing in my head
"One more time and you're out on your yeah"
Well I can't wait till the five o'clock whistle blows
So I can sit in traffic all day pretend I'm going home alone

(Riff)
E-0-0----3------2--|
B-2-2--2-3------2--|
G-2-2--3-0------3--|
D-2-2--4-0------0--|
A-0-0--4-2------0--|
E------2-3--2-0----|

Main Lick:
E--------------------|
B--------------------|
G-------10----12-10--|
D-10^13----10--------|
A--------------------|
E--------------------|

E---------------------|
B---------------------|
G-------12----15-13---|
D-13^15----13---------|
A---------------------|
E---------------------|

Verse Lick:
Lick 1
E-----------------------------|
B-----------------------------|
G----------9--7---------------|
D-x-7-7ó9b------9-7-7^9-7-----|
A-x-7-7-----------------------|
E-----------------------------|

Lick 2
E------------------------------|
B------------------------------|
G------------------------------|
D-x-7-x-7-7-x-x-7-x-7-7--------|
A-x-7-x-7-7-x-x-7-x-7-7--------|
E------------------------------|
Related for All Things Considered tab