Song name
# A B C D E F G H I J K L M N O P Q R S T U V W X Y Z

Yankovic Weird Al - Smells Like Nirvana tab

Help us improve GuitareTab! Take a short survey!
this is a really funny song and i could not find a good tab for it so
i tabbed it myself

intro
e|------xxxx----0------xxxx------0|------xxxx----0------xxxx------0|
b|------xxxx----0------xxxx------0|------xxxx----0------xxxx------0|
g|------xxxx3-3-0------xxxx6-6-6-0|------xxxx3-3-0------xxxx6-6-6-0|
d|-3-3-3xxxx3-3-0-6-6-6xxxx6-6-6-0|-3-3-3xxxx3-3-0-6-6-6xxxx6-6-6-0|
a|-3-3-3xxxx1-1-0-6-6-6xxxx4-4-4-0|-3-3-3xxxx1-1-0-6-6-6xxxx4-4-4-0|
e|-1-1-1xxxx----0-4-4-4xxxx------0|-1-1-1xxxx----0-4-4-4xxxx------0|

now add distortion

e|------xxxx----0------xxxx------0|------xxxx----0------xxxx------0|
b|------xxxx----0------xxxx------0|------xxxx----0------xxxx------0|
g|------xxxx3-3-0------xxxx6-6-6-0|------xxxx3-3-0------xxxx6-6-6-0|
d|-3-3-3xxxx3-3-0-6-6-6xxxx6-6-6-0|-3-3-3xxxx3-3-0-6-6-6xxxx6-6-6-0|
a|-3-3-3xxxx1-1-0-6-6-6xxxx4-4-4-0|-3-3-3xxxx1-1-0-6-6-6xxxx4-4-4-0|
e|-1-1-1xxxx----0-4-4-4xxxx------0|-1-1-1xxxx----0-4-4-4xxxx------0|

e|------xxxx----0------xxxx------0|
b|------xxxx----0------xxxx------0|
g|------xxxx3-3-0------xxxx6-6-6-0|
d|-3-3-3xxxx3-3-0-6-6-6xxxx6-6-6-0|
a|-3-3-3xxxx1-1-0-6-6-6xxxx4-4-4-0|
e|-1-1-1xxxx----0-4-4-4xxxx------0|

verse
e|--------------------------------|
b|------------6-------------------|
g|----------5---------------------|x6 (no distortion)
d|--------------------------------|
a|--------------------------------|
e|--------------------------------|

verse(bass)
g|--------------------------|--------------------------|
d|--------------------------|--------------------------|
a|-------1-1-1-------4-4-4-3|-------1-1-1-------4-4-4-3|
e|-1-1-1-------4-4-4--------|-1-1-1-------4-4-4--------|

g|--------------------------|--------------------------|
d|--------------------------|--------------------------|
a|-------1-1-1-------4-4-4-3|-------1-1-1-------4-4-4-3|
e|-1-1-1-------4-4-4--------|-1-1-1-------4-4-4--------|

g|--------------------------|--------------------------|
d|--------------------------|--------------------------|
a|-------1-1-1-------4-4-4-3|-------1-1-1-------4-4-4-3|
e|-1-1-1-------4-4-4--------|-1-1-1-------4-4-4--------|

(keep this going during pre chorus)

pre chorus
e|--------------------------------|
b|--6---6---6---6---6---6---6---6-|
g|-5--5---5---5---5---5---5---5---|(distortion)
d|--------------------------------|
a|--------------------------------|
e|--------------------------------|

chorus
e|------xxxx----0------xxxx------0|------xxxx----0------xxxx------0|
b|------xxxx----0------xxxx------0|------xxxx----0------xxxx------0|
g|------xxxx3-3-0------xxxx6-6-6-0|------xxxx3-3-0------xxxx6-6-6-0|
d|-3-3-3xxxx3-3-0-6-6-6xxxx6-6-6-0|-3-3-3xxxx3-3-0-6-6-6xxxx6-6-6-0|
a|-3-3-3xxxx1-1-0-6-6-6xxxx4-4-4-0|-3-3-3xxxx1-1-0-6-6-6xxxx4-4-4-0|
e|-1-1-1xxxx----0-4-4-4xxxx------0|-1-1-1xxxx----0-4-4-4xxxx------0|

e|------xxxx----0------xxxx------0|------xxxx----0------xxxx------0|
b|------xxxx----0------xxxx------0|------xxxx----0------xxxx------0|
g|------xxxx3-3-0------xxxx6-6-6-0|------xxxx3-3-0------xxxx6-6-6-0|
d|-3-3-3xxxx3-3-0-6-6-6xxxx6-6-6-0|-3-3-3xxxx3-3-0-6-6-6xxxx6-6-6-0|
a|-3-3-3xxxx1-1-0-6-6-6xxxx4-4-4-0|-3-3-3xxxx1-1-0-6-6-6xxxx4-4-4-0|
e|-1-1-1xxxx----0-4-4-4xxxx------0|-1-1-1xxxx----0-4-4-4xxxx------0|

e|------xxxx----0------xxxx------0|------xxxx----0------xxxx------0|
b|------xxxx----0------xxxx------0|------xxxx----0------xxxx------0|
g|------xxxx3-3-0------xxxx6-6-6-0|------xxxx3-3-0------xxxx6-6-6-0|
d|-3-3-3xxxx3-3-0-6-6-6xxxx6-6-6-0|-3-3-3xxxx3-3-0-6-6-6xxxx6-6-6-0|
a|-3-3-3xxxx1-1-0-6-6-6xxxx4-4-4-0|-3-3-3xxxx1-1-0-6-6-6xxxx4-4-4-0|
e|-1-1-1xxxx----0-4-4-4xxxx------0|-1-1-1xxxx----0-4-4-4xxxx------0|

post chorus
e|----------------------|
b|----------------------|
g|----------------------|x2
d|-3-3-4-4---3-3-8-8-6-6|
a|-3-3-4-4---3-3-8-8-6-6|
e|-1-1-2-2---1-1-6-6-4-4|

solo is gurgled with water

end on
e|---|
b|---|
g|---|
d|-3-|
a|-3-|
e|-1-|

STUCTURE
intro
verse
pre chorus
chorus
post chorus
verse
pre chorus
chorus
post chorus
solo
verse
chorus
end.

and thats it
Related for Smells Like Nirvana tab