Song name
# A B C D E F G H I J K L M N O P Q R S T U V W X Y Z

Yann Tiersen - La Valse Damelie tab

La Valse d'Am?lie - Yann Tiersen

Accordage : E A D G B E 	Signature Rythmique: 3/4

|10----------------------|--------------------8---|7-----------------------|
|------------------------|------------------------|------------------------|
|------------------------|------------------------|------------------------|
|0-------7-------7-------|0-------7-------7-------|--------7-------7-------|
|------------------------|------------------------|0-----------------------|
|------------------------|------------------------|------------------------|

|------------------------|10----------------------|----12--10--8---7---8---|
|10----------------------|------------------------|------------------------|
|------------------------|------------------------|------------------------|
|--------7-------7-------|0-------7-------7-------|0-------7-------7-------|
|0-----------------------|------------------------|------------------------|
|------------------------|------------------------|------------------------|

|7-----------------------|------------------------|8-----------------------|
|------------------------|10----------------------|------------------------|
|------------------------|------------------------|------------------------|
|--------7-------7-------|--------7-------7-------|--------10------10------|
|0-----------------------|0-----------------------|8-----------------------|
|------------------------|------------------------|------------------------|

|------------------------|------------------------|------------------------|
|--------------------12--|------------------------|------------------------|
|------------------------|9-----------------------|------------------------|
|--------10------10------|--------10------10------|--------10------10------|
|8-----------------------|------------------------|------------------------|
|------------------------|8-----------------------|8-----------------------|

|8-----------------------|----10--8-------8-------|------------------------|
|------------------------|------------12------12--|------------------------|
|------------------------|------------------------|9-----------------------|
|--------10------10------|--------10------10------|--------10------10------|
|8-----------------------|8-----------------------|------------------------|
|------------------------|------------------------|8-----------------------|

|------------------------|
|------------------------|
|------------------------|
|--------10------10------|
|------------------------|
|8-----------------------|
Tap to rate this tab
 
# A B C D E F G H I J K L M N O P Q R S T U V W X Y Z