Song name
# A B C D E F G H I J K L M N O P Q R S T U V W X Y Z

Yannick Cremer - Theme Du Joueur Du Grenier tab

                        Theme du joueur du Grenier

Musique par Yannick Crémer (http://www.youtube.com/watch?v=M9XTrD7z91A)


Intro :
E:---------2-----5-----7-----3-----5----------2-----5----3----2----------|
B:----3-----------------------------------3-------------------------3----|
G:-----------------------------------------------------------------------|
D:-----------------------------------------------------------------------|
A:-----------------------------------------------------------------------|
E:-----------------------------------------------------------------------|

2e Partie (Rock)

La 1ère guitare joue l'intro (en overdrive), la seconde joue ça :

E:----x---x---x---x---x--(5)-|
B:----x---x---x---x---x--(5)-|
G:----7---4---7---4---2---7--|
D:----7---4---7---4---2---7--|
A:----5---2---5---2---0---5--|
E:----x---x---x---x---x---x--|

Solo :
E:-------14--17--17^--15-17--14b--------------------------|
B:----15--------------------------------------------------|
G:--------------------------------------------------------|
D:--------------------------------------------------------|
A:--------------------------------------------------------|
E:--------------------------------------------------------|
Tap to rate this tab
 
# A B C D E F G H I J K L M N O P Q R S T U V W X Y Z