Song name
# A B C D E F G H I J K L M N O P Q R S T U V W X Y Z

Yano - Banal Na Aso Santong Kabayo tab

------------------------------------------------------------8-|
-------------------------------------------7--8 pull off 7----|
-----------------------------9------9-------------------------|
--9 bend up--7--9--7--9--10-----10-----10---------------------|
--------------------------------------------------------------|
--------------------------------------------------------------|

-------------------------------------------------------------|
--8 pull off 7------7 pull off 5-----------------------------|
----------------8--------------------8 hammer on 9-----------|
----------------------------------9-----------------9--------|
-------------------------------------------------------------|
-------------------------------------------------------------|

-------------------------------------------------------------|
----------------------------------8 bend up 7--------7-------|
----------------------------9------------------9--8----------|
--9 hammer on 10--9--10--9-----9-----------------------------|
-------------------------------------------------------------|
-------------------------------------------------------------|

-------------------------------------------------------------|
--10 bend up 2x..--8 hammer on 10--8-----8-------------------|
--------------------------------------9-----9----------------|
-------------------------------------------------------------|
-------------------------------------------------------------|
-------------------------------------------------------------|

-------------------------------------------------------------|
---------------------------------------10--12--10------------|
----------------7--9--7--9 slide to 12-----------------------|
--7 slide to 9-----------------------------------------------|
-------------------------------------------------------------|
-------------------------------------------------------------|

-------------------10------10 hammer on 12 2x...-------------|
--10 hammer on 12------12------------------------------------|
-------------------------------------------------------------|
-------------------------------------------------------------|
-------------------------------------------------------------|
-------------------------------------------------------------|

-------------------------------------------------------------|
--12 hammer on 15--12-------12 hammer on 13--12--------------|
-----------------------15------------------------15----------|
-------------------------------------------------------------|
-------------------------------------------------------------|
-------------------------------------------------------------|

-------------------------------------------------------------|
--12---------------------------------------------------------|
------15--14--12--11------pull offs 11 back------------------|
-------------------------------------------------------------|
-------------------------------------------------------------|
-------------------------------------------------------------|

Tabs by: Jun Villaruz
bass/Guitars/Vocals of the band
"Flipping Coins"
Tap to rate this tab
 
# A B C D E F G H I J K L M N O P Q R S T U V W X Y Z