Song name
# A B C D E F G H I J K L M N O P Q R S T U V W X Y Z

Yano - Senti tab

Senti By: YANO
Tabs RJ montes ondat88@yahoo.com

INTRO
|---------------------0----------------------------0----------|
|-----------0-----0--------------------3-------3--------------|
|--------2-----2------------------2---------2-----------------|
|-----2-----------------------2-------------------------------|
|--0-----------------------0----------------------------------|
|-------------------------------------------------------------|

parang ganun narin sa verse.....ulitulitin lang ninyo!!!...

 niyaya mo akong mamasyal sa zoo
 Ang sabi mo kase kailangan mo ng kasama
 Sumama naman ako kase crush kita noon pa
 Kunsabagay, gusto ko na ring magka... alam mo na.

|---------------------0----------------------------0----------|
|-----------0-----0--------------------3-------3--------------|
|--------2-----2------------------2---------2-----------------|
|-----2-----------------------2-------------------------------|
|--0-----------------------0----------------------------------|
|-------------------------------------------------------------|

ulitulitin nyo ulit bahala na kayo....

 
 Pagkatapos kumain tayo sa labas
 Kwinento mo ang iyong nakaraan
 Iniwanan ka pala ng yong boypren
 Kasi ayaw n'ya ang bago mong buhok.

Chorus
A             D9      A-D9
 Mahal ka ba n'ya talaga
A             D9      A-D9
 Mahal ka ba n'ya talaga?

yun lang.....rate nlng nnyo...
-=ondat=-



Tap to rate this tab
# A B C D E F G H I J K L M N O P Q R S T U V W X Y Z