Song name
# A B C D E F G H I J K L M N O P Q R S T U V W X Y Z

Yano - Uskolar Ng Bayan tab

oi mga music lovers eto lang ang nakuha ko..
tingin ko nasa 88% to di ako sure sa last part pero pwede na rin..

e||--3-6h8---8-6-4-6-8-8-6-4-6-8-8-6-8-8-4-6-6------|
B||-2------7------------------------------------2-4-|
G||-------------------------------------------------|
D||-------------------------------------------------|
A||-------------------------------------------------|
E||-------------------------------------------------|

e||--3-6h8---8-6-4-6-8-8-6-4-6-8-8-6-8-8-4-6-6-----||
B||-2------7---------------------------------------||
G||------------------------------------------------||
D||------------------------------------------------||
A||------------------------------------------------||
E||------------------------------------------------||

chords:
A-E-A-D


for suggestions or comments email nyo lang ako otencyano@hotmail.com


| /|  /   |***  | /  _____
| V | /__  |   | |K     |
|   |/     |*** |     |eves

ApPlEsOup
Tap to rate this tab
 
# A B C D E F G H I J K L M N O P Q R S T U V W X Y Z