Guitaretab - guitar tabs
Song name
# A B C D E F G H I J K L M N O P Q R S T U V W X Y Z

Yaphet Kotto - Highly Enlightened tab

http://www.yaphetkotto.cjb.net/

Guitar1:
E||----------------------|----------------------|----------------------|
B||----------------------|----------------------|----------------------|
G||-------4----5----4----|-------4----5----4----|-------4----5----4----|
D||----------------------|----------------------|----------------------|
A||--3-------------------|--3-------------------|--5-------------------|
E||----------------------|----------------------|----------------------|

----------------------|----------------------|----------------------|
----------------------|----------------------|----------------------|
-------4----5----4----|----------------------|----------------------|
----------------------|------------5---------|------------5---------|
--5-------------------|-------3---------3----|-------3---------3----|
----------------------|--5-------------------|--5-------------------|
^^Repeat that whole thing twice

-------------------|-------------------|-------------------|
-------------------|-------------------|-------------------|
--5----------------|--7----------------|-------------------|
--5----------------|--7----------------|--7----------------| x2
--3----------------|--5----------------|--7----------------|
-------------------|-------------------|--5----------------|

------------------------------|-----------------------|
------------------------------|-----------------------|
--5-5-5-5-5--5*---------------|--5-5-5-5-5------------|
--5-5-5-5-5---------5*--------|--5-5-5-5-5--1/--------|
--3-3-3-3-3-------------------|--3-3-3-3-3--1/--------|
------------------------------|-------------1/--------|

------------------------------|----------------------------|
------------------------------|----------------------------|
--5-5-5-5-5-------------------|----------------------------|
--5-5-5-5-5--5*---------------|--7----7----4b----4*--------|
--3-3-3-3-3---------5*--------|--7----7---------------5*---|
------------------------------|--5----5--------------------|

------------------------------|-----------------------|
------------------------------|-----------------------|
--5-5-5-5-5--5*---------------|--5-5-5-5-5------------|
--5-5-5-5-5---------5*--------|--5-5-5-5-5--1/--------|
--3-3-3-3-3-------------------|--3-3-3-3-3--1/--------|
------------------------------|-------------1/--------|

------------------------------|------------------------|----------------------|
------------------------------|------------------------|----------------------|
--5-5-5-5-5-------------------|------------------------|-------4----5----4----|
--5-5-5-5-5--5*---------------|--7----7----4b4--4------|----------------------|
--3-3-3-3-3---------5*--------|--7----7-------------5--|--3-------------------|
------------------------------|--5----5----------------|----------------------|

----------------------|----------------------|----------------------|
----------------------|----------------------|----------------------|
-------4----5----4----|-------4----5----4----|-------4----5----4----|
----------------------|----------------------|----------------------|
--3-------------------|--5-------------------|--5-------------------|
----------------------|----------------------|----------------------|

----------------------|----------------------|------------------------------|
----------------------|----------------------|------------------------------|
----------------------|----------------------|--5--5-5-5-5-5--5-5-5-5-5--5--|
------------5---------|------------5---------|--5--5-5-5-5-5--5-5-5-5-5--5--|
-------3---------3----|-------3---------3----|--3--3-3-3-3-3--3-3-3-3-3--3--|
--5-------------------|--5-------------------|------------------------------|
[ Tab from: http://www.guitaretab.com/y/yaphet-kotto/113032.html ]
-----------------------------|------------------------------|
-----------------------------|------------------------------|
--7--7-7-7-7-7--7-7-7-7-7----|------------------------------|
--7--7-7-7-7-7--7-7-7-7-7----|--7--7-7-7-7-7--7-7-7-7-7--7--| x4
--5--5-5-5-5-5--5-5-5-5-5----|--7--7-7-7-7-7--7-7-7-7-7--7--|
-----------------------------|--5--5-5-5-5-5--5-5-5-5-5--5--|

End with:
-------------------|----||

-------------------|----||
-------------------|----||
--5----------------|----||
--5----------------|----||
--3----------------|----||

Guitar 2:

E||-------------------|-------------------|-------------------|
B||-------------------|-------------------|-------------------|
G||--5----------------|--5----------------|--7----------------|
D||--5----------------|--5----------------|--7----------------|
A||--3----------------|--3----------------|--5----------------|
E||-------------------|-------------------|-------------------|

-------------------|-------------------|-------------------|-------------------|
-------------------|-------------------|-------------------|-------------------|
--7----------------|-------------------|-------------------|--5----------------|
--7----------------|--7----------------|--7----------------|--5----------------|
--5----------------|--7----------------|--7----------------|--3----------------|
-------------------|--5----------------|--5----------------|-------------------|

-------------------|-------------------|--------------------------|
-------------------|-------------------|--------------------------|
--7----------------|-------------------|--5-5-5-5-5---------------|
--7----------------|--7----------------|--5-5-5-5-5---------------|
--5----------------|--7----------------|--3-3-3-3-3---------------|
-------------------|--5----------------|--------------------------|

---------------------------|--------------------------|-------|
---------------------------|--------------------------|-------|
--5-5-5-5-5----------------|--5-5-5-5-5---------------|-------|
--5-5-5-5-5----------------|--5-5-5-5-5---------------|-------|
--3-3-3-3-3--2-------------|--3-3-3-3-3---------------|-------|
------------------3--1--0--|--------------------------|-------|

--------------------------|---------------------------|
--------------------------|---------------------------|
--5-5-5-5-5---------------|--5-5-5-5-5----------------|
--5-5-5-5-5---------------|--5-5-5-5-5----------------|
--3-3-3-3-3---------------|--3-3-3-3-3--2-------------|
--------------------------|------------------3--1--0--|

--------------------------|-------|-------------------|-------------------|
--------------------------|-------|-------------------|-------------------|
--5-5-5-5-5---------------|-------|--5----------------|--5----------------|
--5-5-5-5-5---------------|-------|--5----------------|--5----------------|
--3-3-3-3-3---------------|-------|--3----------------|--3----------------|
--------------------------|-------|-------------------|-------------------|

-------------------|-------------------|-------------------|-------------------|
-------------------|-------------------|-------------------|-------------------|
--7----------------|--7----------------|-------------------|-------------------|
--7----------------|--7----------------|--7----------------|--7----------------|
--5----------------|--5----------------|--7----------------|--7----------------|
-------------------|-------------------|--5----------------|--5----------------|

|-------------------------------|-----------------------------|
|-------------------------------|-----------------------------|
|*--5--5-5-5-5-5--5-5-5-5-5--5--|--7--7-7-7-7-7--7-7-7-7-7----|
|*--5--5-5-5-5-5--5-5-5-5-5--5--|--7--7-7-7-7-7--7-7-7-7-7----|
|---3--3-3-3-3-3--3-3-3-3-3--3--|--5--5-5-5-5-5--5-5-5-5-5----|
|-------------------------------|-----------------------------|
                               x4
-------------------------------||-------------------|-------||
-------------------------------||-------------------|-------||
------------------------------*||-------------------|-------||
--7--7-7-7-7-7--7-7-7-7-7--7--*||--5----------------|-------||
--7--7-7-7-7-7--7-7-7-7-7--7---||--5----------------|-------||
--5--5-5-5-5-5--5-5-5-5-5--5---||--3----------------|-------||

ENJOY!!
Related for Highly Enlightened tab