Song name
# A B C D E F G H I J K L M N O P Q R S T U V W X Y Z

Yardbirds - Still Im Sad tab

-----------------------------------------------------------------------------
                        Still I'm Sad Tab by the Yardbirds                 
-----------------------------------------------------------------------------

Tabbed By: Alex Miller
Email Address: Ram13093@aol.com

Tuning: Standard

Main Riff
e|-0--0-0--|
B|-0--0-0--|
G|-0--0-0--|
D|-2--2-2--|
A|-2--2-2--|
E|-0--0-0--|

Pre Chorus Riff
e|-0--0-0--|
B|-0--0-0--|
G|-0--0-0--|
D|-4--2-2--|
A|-2--2-2--|
E|-0--0-0--|

Chanting Riff
Part A
e|---------------------------|
B|---------------------------|
G|---------------------------|
D|-------------7-------------|
A|-7-9-10-9-10---10-9-7-5-7--|
E|---------------------------|

Chanting Riff
Part B
e|-----------------------------|
B|-----------------------------|
G|-----------------------------|
D|-----------------------------|
A|-10-12-13-12/13-15-13-12-10--|
E|-----------------------------|

Chanting Riff
Part C
e|-----------|
B|-----------|
G|-----------|
D|-----------|
A|-10-9-7-5--|
E|-----------|

Chanting Riff
Part D
e|-----------|
B|-----------|
G|-----------|
D|-7---------|
A|---10-9-7--|
E|-----------|

There you go. You should be able to figure out how many times to play each part.

Symbols
/=slide up
\=slide down
x=mute note
h=hammer on
p=pull off
+=harmonics
~=vibrato

=============================================================================
Tap to rate this tab
 
# A B C D E F G H I J K L M N O P Q R S T U V W X Y Z