Song name
# A B C D E F G H I J K L M N O P Q R S T U V W X Y Z

Yardbirds - Louise tab

Louise-The Yardbirds (John Lee Hooker)


e|-------------------------14b-----------------------------------|
b|14b-13------------13--15-----15—13b—13b-13---------------------|
g|-------15p12h15-12-------------------------15--12--------------|
d|---------------------------------------------------------------|
a|---------------------------------------------------------------|
E|---------------------------------------------------------------|


e|-------------------------------13----13----13------------------|
b|14b--13----------------13-13h15—13h15—13h15--15-13-------------|
g|---------15-12-15-12-15----------------------------15-12-15----|
d|---------------------------------------------------------------|
a|---------------------------------------------------------------|
E|---------------------------------------------------------------|

e|-----13------13-----13-----13-----13---------------------------|
b|13h15--13h15---13h15—13h15---13h15-----------------------------|
d|---------------------------------------------------------------|
d|---------------------------------------------------------------|
a|---------------------------------------------------------------|
E|---------------------------------------------------------------|

e|------------------------------------19b-18---------------------|
b|-(15*pick 16—times)15-13-------------------20------------------|
g|------------------------15p12h15p12-----------19-17-15--15-----|
d|------------------------------------------------------17-------|
a|---------------------------------------------------------------|
E|---------------------------------------------------------------|

e|---------------------------------------------------------------|
b|------20-------------------------------------------------------|
g|17-19----19-17-15----15----------------------------------------|
d|------------------17----17-------------------------------------|
a|---------------------------------------------------------------|
E|---------------------------------------------------------------|

That’s Clapton’s guitar solo to the best that I could figure out. Have fun with it. Ill 
figuring out the Bass and Lead guitar part tabs. Later
-Michael
Tap to rate this tab
 
# A B C D E F G H I J K L M N O P Q R S T U V W X Y Z