Song name
# A B C D E F G H I J K L M N O P Q R S T U V W X Y Z

Yardbirds - Scratch My Back tab

-------------------------------------------------------------------------------
			     Scratch My Back - The Yardbirds
-------------------------------------------------------------------------------
Tabbed by: Raftop
Email: topraf[at]hotmail[dot]com

Tuning: Standard

Slim Harpo's cover, as played in the BBC Sessions album, listen to song for timing (it's 
12 bar blues progression)
Can be played with palm mute

e|-----------------------------------------------------------------------------|
B|-----------------------------------------------------------------------------|
G|-----------------------------------------------------------------------------|
D|-------5-5-3-----------------------------------------------------------------|
A|------------5--------play 4 times -------------------------------------------|
E|--3--3--------3--------------------------------------------------------------|

e|--------------------------------------------------------------------------------|
B|--------------------------------------------------------------------------------|
G|--------5-5-3-------------------------------------------------------------------|
D|--------------5-----------------------------------------------------------------|
A|---3--3---------3------------play 2 times---------------------------------------|
E|--------------------------------------------------------------------------------|

e|-----------------------------------------------------------------------------|
B|-----------------------------------------------------------------------------|
G|-----------------------------------------------------------------------------|
D|-------5-5-3-----------------------------------------------------------------|
A|------------5--------play 2 times -------------------------------------------|
E|--3--3--------3--------------------------------------------------------------|

then

e|-----------------------------------------------------------------------------------|
B|-----------------------------------------------------------------------------------|
G|-------7-7-5--------5-5-3----------------------------------------------------------|
D|-------------7-----------5-----5-5-3-----------------------------------------------|
A|--5-5----------3--3------------------5---------------------------------------------|
E|---------------------------3--3--------3-------------------------------------------|

this is played throughout the song
Tap to rate this tab
 
# A B C D E F G H I J K L M N O P Q R S T U V W X Y Z