Song name
# A B C D E F G H I J K L M N O P Q R S T U V W X Y Z

Yardbirds - Boom Boom tab

Submitted by Adam Pollack
Written by Eric Clapton, Jimmy Page, Jeff Beck (GREAT TRIO!)
Harmonica is played during chord sections
E-----------------------------0--------0--------o
B-------3---------------------0--2--2--0--------o
G-2--4-----4s2----0-----------1--2--2--1--------o
D--------------------2-0-2----2--2--2--2--------o
A-----------------------------2--0--0--2--------o
E-----------------------------0--------0--------o


E--------------------------0--------0--------o
B--------------------------0--2--2--0--------o
G--0--2s4s2--0-------------1--2--2--1--------o
D---------------2--0--2----2--2--2--2--------o
A--------------------------2--0--0--2--------o
E--------------------------0--------0--------o


E--------------------------------2--2----------------o
B-------3---------------------2--3--3--2-------------o
G--2s4-----4s2--0--2--0--2----2--2--2--2-------------o
D-----------------------------2--0--0--2-------------o
A-----------------------------0--------0-------------o
E----------------------------------------------------o


E-----------------------------0--------0-------------o
B-----------------------------0--2--2--0-------------o
G-----0--2s4s2--0-------------1--2--2--1-------------o
D--2---------------2--0--2----2--2--2--2-------------o
A-----------------------------2--0--0--2-------------o
E-----------------------------0--------0-------------o


Thats all! Good luck have some fun with this fun luvin blues tune
Tap to rate this tab
 
# A B C D E F G H I J K L M N O P Q R S T U V W X Y Z