Song name
# A B C D E F G H I J K L M N O P Q R S T U V W X Y Z

Yardbirds - Over Under Sideways Down Acoustic tab

#-------------------------------PLEASE NOTE-------------------------------------#
# This file is the author's own work and represents their interpretation of the #
# song. You may only use this file for private study, scholarship, or research. #
#-------------------------------------------------------------------------------#
Over Under Sideways Down chords for Acoustic guitar
The Yardbirds 1966

e|----------------------------------|
B|----------------------------------|
G|-12-12-10-10-12-15-14-------------|
D|----------------------------------|
A|----------------------------------|
E|----------------------------------| 2X

Hey

e|----------------------------------|
B|-12-12-10-10-12-15-14-------------|
G|----------------------------------|
D|----------------------------------|
A|----------------------------------|
E|----------------------------------| 

Hey

e|----------------------------------|
B|-12-12-10-10-12-------------------|
G|----------------------------------|
D|----------------------------------|
A|----------------------------------|
E|----------------------------------|

Hey

G
Cars and girls are easy come by in this day and age.

Laughing, joking, dreams, weed smoking, till I've spent my wage.

When I was young, people spoke of immorality.

All the things they said were wrong are what I want to be.

       G
(Hey!) Over, under, sideways, down,

(Hey!) I bounce a ball that's square and round.

(Hey!) Over, under, sideways, down,

(Hey!) I bounce a ball that's square and round.

Cm           Gm
When will it end? (When will it end?)
Cm           Gm
When will it end? (When will it end?)

e|----------------------------------|
B|----------------------------------|
G|-12-12-10-10-12-15-14-------------|
D|----------------------------------|
A|----------------------------------|
E|----------------------------------| 2X

Hey

e|----------------------------------|
B|-12-12-10-10-12-15-14-------------|
G|----------------------------------|
D|----------------------------------|
A|----------------------------------|
E|----------------------------------| 

Hey

e|----------------------------------|
B|-12-12-10-10-12-------------------|
G|----------------------------------|
D|----------------------------------|
A|----------------------------------|
E|----------------------------------|

G
I find comments 'bout my looks irrelativity.

Think I'll go and have some fun, 'cause it's all for free.

I'm not searchin' for a reason to enjoy myself.

Seems it's better done than argue with somebody else.

       G
(Hey!) Over, under, sideways, down,

(Hey!) I bounce a ball that's square and round.

(Hey!) Over, under, sideways, down,

(Hey!) I bounce a ball that's square and round.

Cm           Gm
When will it end? (When will it end?)
Cm           Gm
When will it end? (When will it end?)

e|----------------------------------|
B|----------------------------------|
G|-12-12-10-10-12-15-14-------------|
D|----------------------------------|
A|----------------------------------|
E|----------------------------------| 2X

Hey

e|----------------------------------|
B|-12-12-10-10-12-15-14-------------|
G|----------------------------------|
D|----------------------------------|
A|----------------------------------|
E|----------------------------------| 

Hey

e|----------------------------------|
B|-12-12-10-10-12-------------------|
G|----------------------------------|
D|----------------------------------|
A|----------------------------------|
E|----------------------------------|

       G
(Hey!) Over, under, sideways, down,

(Hey!) I bounce a ball that's square and round.

(Hey!) Over, under, sideways, down,

(Hey!) I bounce a ball that's square and round. . . .


Set8
Tap to rate this tab
# A B C D E F G H I J K L M N O P Q R S T U V W X Y Z