Song name
# A B C D E F G H I J K L M N O P Q R S T U V W X Y Z

Yardbirds - Mr Youre A Better Man Than I tab

-----------------------------------------------------------------------------
             MR. YOU'RE A BETTER MAN THAN I - Yardbirds
-----------------------------------------------------------------------------
Tabbed by: sezar
E-mail: Keanu-rimedorf@hotmail.com

Tuning: Standart

e|------------------------------------------------------------------------|
B|------------------------------------------------------------------------|
G|-----2-4brb2------------------------------------------------------------|
D|-2-4---------4---------------------2h4-2h4/7---7-7/9-9/11-11/14-14------|
A|------------------------------------------------------------------------|
E|---------------3-6---5-6-5-6-5-3----------------------------------------|

e|------------------------------------------------------------------------|
B|---------------------------17-------------------------17--------------17|
G|------------/16b-----14h16b--16p14---14-16b-----14h16b--16p14---14-16b--|
D|-14-14/16-16------16--------------16---------16--------------16---------|
A|------------------------------------------------------------------------|
E|------------------------------------------------------------------------|

e|-----14-14-17b-17-14----------------------------------------------------|
B|-17b-----------------17b------14-14----14-14----------------------------|
G|---------------------------16b------16b------16pbr14--------------------|
D|-----------------------------------------------------16-----------------|
A|------------------------------------------------------------------------|
E|------------------------------------------------------------------------|

e|------------------------------------------------------------------------|
B|------------------------------------------------------------------------|
G|---2-4b-4brb2-----------------------------------------------------------|
D|-4------------4b2h4-----------------------------------------------------|
A|------------------------------------------------------------------------|
E|------------------------------------------------------------------------|


************************************

| /   slide up
| \   slide down
| h   hammer-on
| p   pull-off
| ~   vibrato
| +   harmonic
| x   Mute note
| b   Bend
| pb  Pre-bend
| br  Bend release
| pbr Pre-bend release
| brb Bend release bend

************************************
Tap to rate this tab
# A B C D E F G H I J K L M N O P Q R S T U V W X Y Z