Song name
# A B C D E F G H I J K L M N O P Q R S T U V W X Y Z

Yardbirds - Im Not Talkin tab

THIS TAB IS 100% RIGHT
E-----------------------------------------|
B-----------------------------------------|
G-----------------------------------------| PLAY 2 TIMES
D--10-10p8----8-10-8-10-------------------|
A----------10-----------------------------|
E-8---------------------------------------|

e-----------------------------------------|
b-----------------------------------------|
g---10-10p8----8-10-8-10------------------|
d-----------10----------------------------| PLAY 2 TIMES TOO (LOL)
a-8---------------------------------------|
e-----------------------------------------|
I JUST KNOW THE INTRO but I KNOW THE INTRO IS 100% CORRECT SO PLAY IT ON UR MARSHALL AMP 
A GIPSON GUITAR AND ROCK AWAY

tabbed by james pugrad
Tap to rate this tab
 
# A B C D E F G H I J K L M N O P Q R S T U V W X Y Z