Yashin - Stand Up tab

-----------------------------------------------------------------------------
			     Stand Up - Yashin
-----------------------------------------------------------------------------
Tabbed by: Martin-123
Email: jacobsen@live.se

Tuning: Drop D

Intro and verse. "Pick me up...."
e|-------------------------------------------------------|
B|-------------------------------------------------------|
G|----12-11--------12-11--------12-11--------12-11-12-11-|
D|-12-------12--12-------12--12-------12--12-------------|
A|-------------------------------------------------------|
D|-------------------------------------------------------|

Pre-chorus and chorus are the same. "And whyyyy..." "Stand up and make yourself count.." 
"Woaaaaahhh, woaaaahh..." Listen to the song to get the picking pattern.
e|-----------------|
B|-----------------|
G|-----------------|
D|-10--12--14--12--|
A|-10--12--14--12--|
D|-10--12--14--12--|

And then there's the bridge. You'll understand this part when you listen to the song.
e|-----------------|
B|-----------------|
G|-----------------|
D|-14--12--17--12--|
A|-14--12--17--12--|
D|-14--12--17--12--|
Tap to rate this tab
 
# A B C D E F G H I J K L M N O P Q R S T U V W X Y Z