Song name
# A B C D E F G H I J K L M N O P Q R S T U V W X Y Z

Yashin - Intro Awake While Im Asleep tab

                           *MattRevenger's Tab*


Band: Yashin
Song: Intro(Awake While I'm Asleep) 1:49
Album:Put Your Hands Where I Can See Them
Tuning: Drop C


d------------------------------------------------------------------------|
a--14----14---14----12--12---12------------------------------------------|
f----11----11---11----11--11---11----------------------------------------|
C-11----11----11---11---11---11---11-------------------------------------|
G------------------------------------------------------------------------|
C------------------------------------------------------------------------|


d------------------------------------------------------------------------|
a---10----10----9----9----9-----10---10/12--12--12-----------------------|
f-----9-----9-----9----9----9-----9----9/-9---9---9----------------------|
C-7-----7-----7-----7----7----7-----7----7/-9--9---9---------------------|
G------------------------------------------------------------------------|
C------------------------------------------------------------------------|


d--------------------------------------------------------------------|
a--------------------------------------------------------------------|
f11-13-14-13-----11--7---9-------------------------------------------|
C--------------------------------------------------------------------|
G-9-11-12-11------9--5---7-------------------------------------------|
C--------------------------------------------------------------------|


d--------------------------------------------------------------------|
a--------------------------------------------------------------------|
f--------------------------------------------------------------------|
C---4--0--2--4-------------------------------------------------------|
G---4--0--2--4-------------------------------------------------------|
C---4--0--2--4-------------------------------------------------------|
Tap to rate this tab
# A B C D E F G H I J K L M N O P Q R S T U V W X Y Z