Song name
# A B C D E F G H I J K L M N O P Q R S T U V W X Y Z

Yasmeen - Blue Jeans tab

Title: Blue jeans
Artist: Rocksteddy
Ear tabber: Job G. Parreńo

I dedicated this TAB 2 my bandm8's to Jt, Alex,
Toyco, Jef, and speacilly 2 "Precious, Pre!! ingats jan
sa laguna, see ye nxt nxt yr. . .=)

4 any suggestion just txt me=)09176188949

Standard Tuning:

Intro:
e|---------------------------------------------------------------|
B|---------------------------------------------------------------|
G|---------------------------------------------------------------|
D|--8-8--7--10\\\-----8-8--7--10\\\-----8-8--7--10\\\------------|
A|--8-8--7--10\\\-----8-8--7--10\\\-----8-8--7--10\\\------------|
E|--6-6--5—-10\\\-----6-6--5--10\\\-----6-6--5--10\\\------------|

e|------------8-8-8-------------8-8-8----------------------------|
B|------------8-8-8-------------8-8-8----------------------------|
G|---------------------------------------------------------------|
D|---------------------------------------------------------------|
A|---------------------------------------------------------------|
E|--1--0---8-----------1--0---8----------------------------------|

e|---------------------------------------------------------------|
B|--------------13-----------------------------------------------|
G|-12/14—-12-14—---14--12--9-9\7-5~~~----------------------------|
D|---------------------------------------------------------------|
A|---------------------------------------------------------------|
E|---------------------------------------------------------------|

Verse 1
e|---------------------------------------------------------------|
B|---------------------------------------------------------------|
G|---------------------------------------------------------------|
D|-33333333-----//1212121212121212\\---88888888-------33333333---|
A|-33333333-----//1212121212121212\\---66666666-------33333333---|
E|-11111111-----//1010101010101010\\---66666666-------11111111---|
  nandirito kami ngayon                nagsusumikap sa araw araw 

e|---------------------------------------------------------------|
B|---------------------------------------------------------------|
G|---------------------------------------------------------------|
D|--88888\\------------------7-7//12-----------------------------|
A|--88888\\------------------7-7//12-----------------------------|
E|--66666\\------------------5-5//10-----------------------------|
   kayod ng kayod hangang sa mapagod  

e|---------------------------------------------------------------|
B|---------------------------------------------------------------|
G|---------------------------------------------------------------|
D|--55555555//--1010101010101010---------------------------------|
A|--55555555//--1010101010101010---------------------------------|
E|--33333333//---8-8-8-8-8-8-8-8---------------------------------|
    Maagapan ang natatanaw

e|---------------------------------------------------------------|
B|---------------------------------------------------------------|
G|---------------------------------------------------------------|
D|-33333333-----//1212121212121212\\---88888888-------33333333---|
A|-33333333-----//1212121212121212\\---66666666-------33333333---|
E|-11111111-----//1010101010101010\\---66666666-------11111111---|
  Paminsan-minsan ay naglalaro  Pag-ibig lang ang di ginagawang biro

e|---------------------------------------------------------------|
B|---------------------------------------------------------------|
G|-----8-8-5\\-----------------7-7-12\\--------------------------|
D|-----8-8-5\\-----------------7-7-12\\--------------------------|
A|-----6-6-3\\-----------------5-5-10\\--------------------------|
E|---------------------------------------------------------------|
  Kung sa tuksuhan lang hindi pahuhuli  

e|---------------------------------------------------------------|
B|---------------------------------------------------------------|
G|---------------------------------------------------------------|
D|--55555555//--1010101010101010---------------------------------|
A|--55555555//--1010101010101010---------------------------------|
E|--33333333//---8-8-8-8-8-8-8-8---------------------------------|
   kinabuasan ay gina-gabi

e|---------------------------------------------------------------|
B|---------------------------------------------------------------|
G|---------------------------------------------------------------|
D|-33333333-----//1212121212121212\\---88888888-------33333333---|
A|-33333333-----//1212121212121212\\---66666666-------33333333---|
E|-11111111-----//1010101010101010\\---66666666-------11111111---|
   Paminsan-minsan ay nabibigo  Sakit sa puso ay hindi maitago

e|---------------------------------------------------------------|
B|---------------------------------------------------------------|
G|-----8-8-5\\-----------------7-7-12\\--------------------------|
D|-----8-8-5\\-----------------7-7-12\\--------------------------|
A|-----6-6-3\\-----------------5-5-10\\--------------------------|
E|---------------------------------------------------------------|
   Ngunit tuloy pa rin hindi pinapansin

e|---------------------------------------------------------------|
B|---------------------------------------------------------------|
G|---------------------------------------------------------------|
D|--55555555----10x10~~------------------------------------------|
A|--55555555----10x10~~------------------------------------------|
E|--33333333----8-x8-~~------------------------------------------|
    Ang kabuhayan ang intindihin

Drums
Bass
G|--------------|
D|--------------| 12x (mabilis po e2)                     
A|--------------|
E|--3-5-6--6-6--|

Lead
e|---------------------------------------------------------------|
B|---------------------------------------------------------------|
G|---------------------------------------------------------------|
D|---------------------------------------------------------------|
A|---13p11p10—11p10p8--8p6p5--6p5p3-8-8-8--6-6-6--5-5-5--3-3-3---|
E|---------------------------------------------------------------|

Verse II
e|---------------------------------------------------------------|
B|---------------------------------------------------------------|
G|---------------------------------------------------------------|
D|---------------88888888//---------1212121212121212-------------|
A|---------------88888888//---------1212121212121212-------------|
E|---------------66666666//---------1010101010101010-------------|
  Blue jeans     Alam mo ba ano ang ibig sabihin

e|---------------------------------------------------------------|
B|---------------------------------------------------------------|
G|---------------------------------------------------------------|
D|-1010101010101010\\-----33333333-------------------------------|
A|-1010101010101010\\-----33333333-------------------------------|
E|--8-8-8-8-8-8-8-8\\-----11111111-------------------------------|
   Ng ating pagsisikap sa ‘skwela

e|---------------------------------------------------------------|
B|---------------------------------------------------------------|
G|---------------------------------------------------------------|
D|---------------88888888//---------1212121212121212-------------|
A|---------------88888888//---------1212121212121212-------------|
E|---------------66666666//---------1010101010101010-------------|
  Blue jeans     Di na lang iwanan ang pag-aaral

e|---------------------------------------------------------------|
B|---------------------------------------------------------------|
G|---------------------------------------------------------------|
D|-1010101010101010\\--33333333----------------------------------|
A|-1010101010101010\\--33333333----------------------------------|
E|--8-8-8-8-8-8-8-8\\--11111111----------------------------------|
   At sama-sama tayong magsaya

e|---------------------------------------------------------------|
B|---------------------------------------------------------------|
G|---------------------------------------------------------------|
D|--8~~~~~-------------------------------------------------------|
A|--8~~~~~-------------------------------------------------------|
E|--6~~~~~-------------------------------------------------------|
   Ngunit ang kabataan daw ay kayamanan

e|---------------------------------------------------------------|
B|---------------------------------------------------------------|
G|---------------------------------------------------------------|
D|--10~~~~~------------------------------------------------------|
A|--10~~~~~------------------------------------------------------|
E|---8~~~~~------------------------------------------------------|
   Huwag daw basta’t itapon at pabayaan

e|---------------------------------------------------------------|
B|---------------------------------------------------------------|
G|---------------------------------------------------------------|
D|--12~~~~~--------------\\\\5~~~~~------------------------------|
A|--12~~~~~--------------\\\\5~~~~~------------------------------|
E|--10~~~~~--------------\\\\3~~~~~------------------------------|
   Kaya magsikap tayo habang may panahon

e|---------------------------------------------------------------|
B|---------------------------------------------------------------|
G|---------------------------------------------------------------|
D|-10~~~~~--------------\\\\5~~~~~~------------------------------|
A|-10~~~~~--------------\\\\5~~~~~~------------------------------|
E|--8~~~~~--------------\\\\3~~~~~~------------------------------|
   Mag-aral at mag-ipon tayo ng karunungan

Bass
G|---------------------------|
D|---------------------------|
A|----8--8-6--6-5--5-3-------|
E|--5------------------------|

Verse III
e|---------------------------------------------------------------|
B|---------------------------------------------------------------|
G|---------------------------------------------------------------|
D|---------------88888888//----1212121212121212------------------|
A|---------------88888888//----1212121212121212------------------|
E|---------------66666666//----1010101010101010------------------|
  Blue jeans     Sige-sige-sige kayod sa ‘skwela

e|---------------------------------------------------------------|
B|---------------------------------------------------------------|
G|---------------------------------------------------------------|
D|-1010101010101010\\-----33333333-------------------------------|
A|-1010101010101010\\-----33333333-------------------------------|
E|--8-8-8-8-8-8-8-8\\-----11111111-------------------------------|
   At balang araw makikita n’yo

e|---------------------------------------------------------------|
B|---------------------------------------------------------------|
G|---------------------------------------------------------------|
D|---------------88888888//---------1212121212121212-------------|
A|---------------88888888//---------1212121212121212-------------|
E|---------------66666666//---------1010101010101010-------------|
  Blue jeans      Pagkatapos ng iyong paghihirap

e|---------------------------------------------------------------|
B|---------------------------------------------------------------|
G|---------------------------------------------------------------|
D|-1010101010101010\\-------33333333-----------------------------|
A|-1010101010101010\\-------33333333-----------------------------|
E|--8-8-8-8-8-8-8-8\\-------11111111-----------------------------|
   Di ka rin makakahanap ng trabaho

e|---------------------------------------------------------------|
B|---------------------------------------------------------------|
G|---------------------------------------------------------------|
D|--8~~~~~-------------------------------------------------------|
A|--8~~~~~-------------------------------------------------------|
E|--6~~~~~-------------------------------------------------------|
   Sino ba silang nagmamarunong sa buhay

e|---------------------------------------------------------------|
B|---------------------------------------------------------------|
G|---------------------------------------------------------------|
D|--10~~~~~------------------------------------------------------|
A|--10~~~~~------------------------------------------------------|
E|---8~~~~~------------------------------------------------------|
   Huwag sana silang makialam sa ‘king buhay

e|---------------------------------------------------------------|
B|---------------------------------------------------------------|
G|---------------------------------------------------------------|
D|--12~~~~~--------------\\\\5~~~~~------------------------------|
A|--12~~~~~--------------\\\\5~~~~~------------------------------|
E|--10~~~~~--------------\\\\3~~~~~------------------------------|
   Anong kinabukasan pagkatapos sa eskwela

e|---------------------------------------------------------------|
B|---------------------------------------------------------------|
G|---------------------------------------------------------------|
D|-10~~~~~--------------\\\\5~~~~~~------------------------------|
A|-10~~~~~--------------\\\\5~~~~~~------------------------------|
E|--8~~~~~--------------\\\\3~~~~~~------------------------------|
   Huwag ng isipin at baka mangamba ka pa

CHORUS
e|---------------------------------------------------------------|
B|---------------------------------------------------------------|
G|--88888888---------77777777------------------------------------|
D|--88888888---------77777777------------------------------------|
A|--66666666---------55555555------------------------------------|
E|---------------------------------------------------------------|
  Kay tagal-tagal ko ng nag-aaral

e|--------------------------------P-------------------------------|
B|--------------------------------A-------------------------------|
G|--55555555--------------------3-U-------------------------------|
D|--55555555--------------------3-S-------------------------------|
A|--33333333--------------------1-E-------------------------------|
E|--------------------------------D-------------------------------|
  Tingnan mo kupas na ang aking maong, (yeah!)

e|---------------------------------------------------------------|
B|---------------------------------------------------------------|
G|--88888888-----------77777777----------------------------------|
D|--88888888-----------77777777----------------------------------|
A|--66666666-----------55555555----------------------------------|
E|---------------------------------------------------------------|
  Kung akala mo ako ay natuto na

e|---------------------------------------------------------------|
B|---------------------------------------------------------------|
G|---------------------------------------------------------------|
D|--55555555-----------------------------------------------------|
A|--55555555-----------------------------------------------------|
E|--33333333-----------------------------------------------------|
    Hindi pa rin

Repeat Chorus
e|---------------------------------------------------------------|
B|---------------------------------------------------------------|
G|---------------------------------------------------------------|
D|---------------88888888//----1212121212121212------------------|
A|---------------88888888//----1212121212121212------------------|
E|---------------66666666//----1010101010101010------------------|
   Blue jeans    Sige-sige-sige kayod sa ‘skwela

e|---------------------------------------------------------------|
B|---------------------------------------------------------------|
G|---------------------------------------------------------------|
D|-1010101010101010\\-----33333333-------------------------------|
A|-1010101010101010\\-----33333333-------------------------------|
E|--8-8-8-8-8-8-8-8\\-----11111111-------------------------------|
   At balang araw makikita n’yo

e|---------------------------------------------------------------|
B|---------------------------------------------------------------|
G|---------------------------------------------------------------|
D|---------------88888888//------------1212121212121212----------|
A|---------------88888888//------------1212121212121212----------|
E|---------------66666666//------------1010101010101010----------|
   Blue jeans    Di na lang iwanan ang pag-aaral

e|---------------------------------------------------------------|
B|---------------------------------------------------------------|
G|---------------------------------------------------------------|
D|-1010101010101010\\-------33333333-----------------------------|
A|-1010101010101010\\-------33333333-----------------------------|
E|--8-8-8-8-8-8-8-8\\-------11111111-----------------------------|
   At sama-sama tayong magsaya
e|---------------------------------------------------------------|
B|---------------------------------------------------------------|
G|---------------------------------------------------------------|
D|---------------88888888//----1212121212121212------------------|
A|---------------88888888//----1212121212121212------------------|
E|---------------66666666//----1010101010101010------------------|
   Blue jeans    Pagkatapos ng iyong paghihirap

e|---------------------------------------------------------------|
B|---------------------------------------------------------------|
G|---------------------------------------------------------------|
D|-1010101010101010\\-----33333333-------------------------------|
A|-1010101010101010\\-----33333333-------------------------------|
E|--8-8-8-8-8-8-8-8\\-----11111111-------------------------------|
   Di ka rin makakahanap ng trabaho

e|---------------------------------------------------------------|
B|---------------------------------------------------------------|
G|---------------------------------------------------------------|
D|--8~~~~~-------------------------------------------------------|
A|--8~~~~~-------------------------------------------------------|
E|--6~~~~~-------------------------------------------------------|
   Sino ba silang nagmamarunong sa buhay

e|---------------------------------------------------------------|
B|---------------------------------------------------------------|
G|---------------------------------------------------------------|
D|--10~~~~~------------------------------------------------------|
A|--10~~~~~------------------------------------------------------|
E|---8~~~~~------------------------------------------------------|
   Huwag sana silang makialam sa ‘king buhay

e|---------------------------------------------------------------|
B|---------------------------------------------------------------|
G|---------------------------------------------------------------|
D|--12~~~~~--------------\\\\5~~~~~------------------------------|
A|--12~~~~~--------------\\\\5~~~~~------------------------------|
E|--10~~~~~--------------\\\\3~~~~~------------------------------|
   Anong kinabukasan pagkatapos sa eskwela

e|---------------------------------------------------------------|
B|---------------------------------------------------------------|
G|---------------------------------------------------------------|
D|-10~~~~~--------------\\\\5~~~~~~------------------------------|
A|-10~~~~~--------------\\\\5~~~~~~------------------------------|
E|--8~~~~~--------------\\\\3~~~~~~------------------------------|
   Huwag ng isipin at baka mangamba ka pa

Bass
G|----------------------------------------------------------|
D|----------------------------------------------------------|
A|----------------5-6-8-8---8-8-6-5-------------------------|2x
E|--8-8-5-6-8-8----------------------8----------------------|
Tymingan nu nalang po =)
  bass
G|---------------------------------------------------------------|
D|---------------------------------------------------------------|
A|----------------5-6-8-8---8-8-6-5------------------------------|
E|--8-8-5-6-8-8----------------------8---------------------------|
 | Lead 
e|---------------------------------------------------------------|
B|----------------------------8-10/11-13-------------------------|
G|------------------7-7-8-11-------------------------------------|
D|-8/10-10-10-8-10-----------------------------------------------|
A|---------------------------------------------------------------|
E|---------------------------------------------------------------|
  base
G|---------------------------------------------------------------|
D|---------------------------------------------------------------|
A|----------------5-6-8-8---8-8-6-5------------------------------|
E|--8-8-5-6-8-8----------------------8---------------------------|
 |
 | Lead
e|--//11--10--------------11-11-13-14~~--------------------------|
B|-----------11---13---13----------------------------------------|
G|---------------------------------------------------------------|
D|---------------------------------------------------------------|
A|---------------------------------------------------------------|
E|---------------------------------------------------------------|
  
e|---------------------------------------------------------------|
B|---------------------------------------------------------------|
G|---------------------------------------------------------------|
D|---------------88888888//----1212121212121212------------------|
A|---------------88888888//----1212121212121212------------------|
E|---------------66666666//----1010101010101010------------------|
   Blue jeans    Alam mo ba ano ang ibig sabihin

e|---------------------------------------------------------------|
B|---------------------------------------------------------------|
G|---------------------------------------------------------------|
D|-1010101010101010\\-----33333333-------------------------------|
A|-1010101010101010\\-----33333333-------------------------------|
E|--8-8-8-8-8-8-8-8\\-----11111111-------------------------------|
   Ng ating pagsisikap sa ‘skwela

e|---------------------------------------------------------------|
B|---------------------------------------------------------------|
G|---------------------------------------------------------------|
D|---------------88888888//----1212121212121212------------------|
A|---------------88888888//----1212121212121212------------------|
E|---------------66666666//----1010101010101010------------------|
   Blue jeans    Di na lang iwanan ang pag-aaral

e|---------------------------------------------------------------|
B|---------------------------------------------------------------|
G|---------------------------------------------------------------|
D|-1010101010101010\\-----33333333-------------------------------|
A|-1010101010101010\\-----33333333-------------------------------|
E|--8-8-8-8-8-8-8-8\\-----11111111-------------------------------|
   At sama-sama tayong magsaya

e|---------------------------------------------------------------|
B|---------------------------------------------------------------|
G|---------------------------------------------------------------|
D|---------------88888888//----1212121212121212------------------|
A|---------------88888888//----1212121212121212------------------|
E|---------------66666666//----1010101010101010------------------|
   Blue jeans    Sige-sige-sige kayod sa ‘skwela

e|---------------------------------------------------------------|
B|---------------------------------------------------------------|
G|---------------------------------------------------------------|
D|-1010101010101010\\-----33333333-------------------------------|
A|-1010101010101010\\-----33333333-------------------------------|
E|--8-8-8-8-8-8-8-8\\-----11111111-------------------------------|
   At balang araw makikita n’yo

e|---------------------------------------------------------------|
B|---------------------------------------------------------------|
G|---------------------------------------------------------------|
D|---------------88888888//----1212121212121212------------------|
A|---------------88888888//----1212121212121212------------------|
E|---------------66666666//----1010101010101010------------------|
   Blue jeans    Di na lang iwanan ang pag-aaral

e|---------------------------------------------------------------|
B|---------------------------------------------------------------|
G|---------------------------------------------------------------|
D|-1010101010101010\\-----33333333-------------------------------|
A|-1010101010101010\\-----33333333-------------------------------|
E|--8-8-8-8-8-8-8-8\\-----11111111-------------------------------|
   At sama-sama tayong magsaya
e|---------------------------------------------------------------|
B|---------------------------------------------------------------|
G|---------------------------------------------------------------|
D|---------------88888888//----1212121212121212------------------|
A|---------------88888888//----1212121212121212------------------|
E|---------------66666666//----1010101010101010------------------|
   Blue jeans    Pagkatapos ng iyong paghihirap

e|---------------------------------------------------------------|
B|---------------------------------------------------------------|
G|---------------------------------------------------------------|
D|-1010101010101010\\-----33333333-------------------------------|
A|-1010101010101010\\-----33333333-------------------------------|
E|--8-8-8-8-8-8-8-8\\-----11111111-------------------------------|
   Di ka rin makakahanap ng trabaho

Bass
G|--------------|
D|--------------| 12x   
A|--------------|
E|--5-7-8-8-8---|
Blue jeans
blue jeans
blue jenss ( heto na )

e|---------------------------------------------------------------|
B|---------------------------------------------------------------|
G|---------------------------------------------------------------|
D|--8~~~~--------------------------------------------------------|
A|--8~~~~--------------------------------------------------------|
E|--6~~~~--------------------------------------------------------|
    Blue Jeans!!!!!!!!!!!!!

Tap to rate this tab
# A B C D E F G H I J K L M N O P Q R S T U V W X Y Z