Song name
# A B C D E F G H I J K L M N O P Q R S T U V W X Y Z

Yasuharu Takanashi - Hyouhaku tab

This is Hyouhaku [Wandering] from the Naruto Shippuuden OST2 - beautiful 
song, not too tricky at all to play. This is my first tab, so if you have 
any suggestions or comments feel free to leave them!

The slidey bits should be played with a slide, but this just makes the rest 
of it too hard (or in my case unplayable!) so I just slide it by hand...

Tuning: Drop D

|----------------------------------------------------------------------|
|----------------------------------------------------------------------|
|----------------------------------------------------------------------|
|-0-2/3\2p0--/5--/5---------------0-2/3\2p0--0---0---------------------|
|-0-2/3\2p0--/5--/5---------------0-2/3\2p0--0---0---------------------|
|-0-2/3\2p0--/5--/5---------------0-2/3\2p0--0---0---------------------|

|----------------------------------------------------------------------|
|----------------------------------------------------------------------|
|----------------------------------------------------------------------|
|-0-2/3\2p0--/5--/5---------------0-2/3\2p0--0---0---------------------|
|-0-2/3\2p0--/5--/5---------------0-2/3\2p0--0---0---------------------|
|-0-2/3\2p0--/5--/5---------------0-2/3\2p0--0---0---------------------|

|------5----------0h1---3-----------0h1--0-----------------------------|
|--3---------3------------------1-------------3------------------------|
|----------2------------------0------------------------2---------------|
|--------0------------------0------------------------0-----------------|
|-----------------------3--------------------------0-------------------|
|------0--------------------------------------0------------------------|

|----------------------------------------------------------------------|
|----------------------------------------------------------------------|
|------------------2---------------------------------------------------|
|-0-2/3\2p0--0---0-----------------------------------------------------|
|-0-2/3\2p0--0---------------------------------------------------------|
|-0-2/3\2p0--0---------------------------------------------------------|

|------5------------/8---7------------3-5------------------------------|
|--3---------3----------------------------------3----------------------|
|----------2--------------------7-------------2------------------------|
|--------0--------------------5-------------0--------------------------|
|---------------------------5------------------------------------------|
|------0-----------------5--------------0------------------------------|


|----------------------------------------------------------------------|
|----------------------------------------------------------------------|
|------------------2---------------------------------------------------|
|-0-2/3\2p0--0---0-----------------------------------------------------|
|-0-2/3\2p0--0---------------------------------------------------------|
|-0-2/3\2p0--0---------------------------------------------------------|


|------5----------0h1---3-----------0h1--0-----------------------------|
|--3---------3------------------1-------------3------------------------|
|----------2------------------0------------------------2---------------|
|--------0------------------0------------------------0-----------------|
|-----------------------3--------------------------0-------------------|
|------0--------------------------------------0------------------------|

|----------------------------------------------------------------------|
|----------------------------------------------------------------------|
|------------------2---------------------------------------------------|
|-0-2/3\2p0--0---0-----------------------------------------------------|
|-0-2/3\2p0--0---------------------------------------------------------|
|-0-2/3\2p0--0---------------------------------------------------------|

|------5------------/8---7------------3-5------------------------------|
|--3---------3----------------------------------3----------------------|
|----------2--------------------7-------------2------------------------|
|--------0--------------------5-------------0--------------------------|
|---------------------------5------------------------------------------|
|------0-----------------5--------------0------------------------------|

|----------------------------------------------------------------------|
|----------------------------------------------------------------------|
|------------------2---------------------------------------------------|
|-0-2/3\2p0--0---0-----------------------------------------------------|
|-0-2/3\2p0--0---------------------------------------------------------|
|-0-2/3\2p0--0---------------------------------------------------------|

|-0h1----------------0h1--0-------------0h1----------------------------|
|------3-------3------------------2----------3-------------------------|
|------------0------------------0--------------------2-----------------|
|----------0------------------0--------------------0-------------------|
|------0------------------0----------------------0---------------------|
|--------------------------------------------0-------------------------|

|----------------------------------------------------------------------|
|----------------------------------------------------------------------|
|------------------2---------------------------------------------------|
|-0-2/3\2p0--0---0-----------------------------------------------------|
|-0-2/3\2p0--0---------------------------------------------------------|
|-0-2/3\2p0--0---------------------------------------------------------|

|-0h1----------------0h1--0-------------0h1----------------------------|
|------3-------3------------------2----------3-------------------------|
|------------0------------------0--------------------2-----------------|
|----------0------------------0--------------------0-------------------|
|------0------------------0----------------------0---------------------|
|--------------------------------------------0-------------------------|

|----------------------------------------------------------------------|
|----------------------------------------------------------------------|
|----------------------------------------------------------------------|
|----------------------------------------------------------------------|
|-0-2--0---------------------------------------------------------------|
|-0-2--0---------------------------------------------------------------|

|----------------------------------------------------------------------|
|----------------------------------------------------------------------|
|----------------------------------------------------------------------|
|-0-2/3\2p0--/5--/5---------------0-2/3\2p0--0---0---------------------|
|-0-2/3\2p0--/5--/5---------------0-2/3\2p0--0---0---------------------|
|-0-2/3\2p0--/5--/5---------------0-2/3\2p0--0---0---------------------|
Tap to rate this tab
# A B C D E F G H I J K L M N O P Q R S T U V W X Y Z