Song name
# A B C D E F G H I J K L M N O P Q R S T U V W X Y Z

Yasuharu Takanashi - Samidare Early Summer Rain tab

THIS IS MY VERY FIRST TAB. THE TIMES COME FROM THIS YOUTUBE VIDEO: 
http://www.youtube.com/watch?v=nlxuqY7A0qY&feature=plcp
HOPE U LIKE IT.THIS IS DONE BY EAR. MY YOUTUBE CHANNEL IS SARAIMAM.THIS IS A VERY EASY SONG.


INTRO (00:00-00:15)
|-----------0-----2--0--|-----------0--------|
|--------1-----2--------|--------1--------1--|
|-----2-----------------|-----2--------2-----|
|--0--------------------|--0-----------------|       
|-----------------------|--------------------|
|-----------------------|--------------------|

|-----------0-----2--0--|-----------0----|
|--------1-----2--------|--------1-------|
|-----2-----------------|-----2----------|
|--0--------------------|--0-------------|       
|-----------------------|----------------|
|-----------------------|----------------|
                                                
PART ONE (00:16-00:51)
|--0-1--|-5-3-5-3-8-5-|-5-3-1-0-1-3-5-0-|-1-5-3-10-8-7-5-|-5-3-6-5-6-8-10-5-|
|------3|-------------|-----------------|----------------|------------------|
|-------|-------------|-----------------|----------------|------------------|
|-------|-------------|-----------------|----------------|------------------|
|-------|-------------|-----------------|----------------|------------------|
|-------|-------------|-----------------|----------------|------------------|

CHORUS (00:52-01:26)
|--12-13-12-3-5-|--8-10-3-5-|--5-6-5---------------5-8-|
|---------------|-----------|--------3-5-6-8-10-13-----|
|---------------|-----------|--------------------------|
|---------------|-----------|--------------------------|
|---------------|-----------|--------------------------|
|---------------|-----------|--------------------------|

|--12-13-12-3-5-|--8-10-3-5-|--5-6-5-------------------|
|---------------|-----------|--------3-5-6-8-10-13-5-3-|
|---------------|-----------|--------------------------|
|---------------|-----------|--------------------------|
|---------------|-----------|--------------------------|
|---------------|-----------|--------------------------|

INTERLUDE (01:27-01:41)
|-----------0-----2--0--|-----------0--------|
|--------1-----2--------|--------1--------1--|
|-----2-----------------|-----2--------2-----|
|--0--------------------|--0-----------------|       X2
|-----------------------|--------------------|
|-----------------------|--------------------|





PART 2 (01:42-02:16)
|--3--0--|--3--5--8--|--3--5--10--8--5--|--8--10--5--|--3--1--5--3-----|
|--------|-----------|------------------|------------|--------------3--|
|--------|-----------|------------------|------------|-----------------|
|--------|-----------|------------------|------------|-----------------|
|--------|-----------|------------------|------------|-----------------|
|--------|-----------|------------------|------------|-----------------|

|--3--5--8--|--3--5--10--12--10--|--8--10--5--|--3--1--3--5-----|
|-----------|--------------------|------------|--------------5--|
|-----------|--------------------|------------|-----------------|
|-----------|--------------------|------------|-----------------|
|-----------|--------------------|------------|-----------------|
|-----------|--------------------|------------|-----------------|                       

CHORUS (2:17-02:52)
|--12-13-12-3-5-|--8-10-3-5-|--5-6-5---------------5-8-|
|---------------|-----------|--------3-5-6-8-10-13-----|
|---------------|-----------|--------------------------|
|---------------|-----------|--------------------------|
|---------------|-----------|--------------------------|
|---------------|-----------|--------------------------|

|--12-13-12-3-5-|--8-10-3-5-|--5-6-5-------------------|
|---------------|-----------|--------3-5-6-8-10-13-5-3-|
|---------------|-----------|--------------------------|
|---------------|-----------|--------------------------|
|---------------|-----------|--------------------------|
|---------------|-----------|--------------------------|

OUTRO (02:53-03:32)
|-----------0-----2--0--|-----------0--------|
|--------1-----2--------|--------1--------1--|
|-----2-----------------|-----2--------2-----|
|--0--------------------|--0-----------------|       X3
|-----------------------|--------------------|
|-----------------------|--------------------|

|------------|
|--------3---|
|-----2------|
|--0---------|
|------------|
|------------|
Tap to rate this tab
 
# A B C D E F G H I J K L M N O P Q R S T U V W X Y Z