Song name
# A B C D E F G H I J K L M N O P Q R S T U V W X Y Z

Yasuharu Takanashi - Man Of The World tab

Title: Man of the World (Naruto Shippuden) Simplified Guitar Tab
Artist: Yasuharu Takanashi
Album: Naruto Shippuden
TabCreator: HuyNguyen8

Comment : A simple easy tab for you guys. Hope you like it!
Check out my youtube channel at : http://www.youtube.com/user/1EpicTurtle?feature=mhee


Track 1: Track 1

E|-1-----3-----|-0-----------|-------0-----|-1-----------|-6-----5-----|-3-----------|
B|-------------|-------------|-3-----------|-------------|-------------|-------------|
G|-------------|-------------|-------------|-------------|-------------|-------------|
D|-------------|-------------|-------------|-------------|-------------|-------------|
A|-------------|-------------|-------------|-------------|-------------|-------------|
E|-------------|-------------|-------------|-------------|-------------|-------------|


E|-3-----1-----|-0-----------|-1-----3-----|-0-----------|-------0-----|-1-----------|
B|-------------|-------------|-------------|-------------|-3-----------|-------------|
G|-------------|-------------|-------------|-------------|-------------|-------------|
D|-------------|-------------|-------------|-------------|-------------|-------------|
A|-------------|-------------|-------------|-------------|-------------|-------------|
E|-------------|-------------|-------------|-------------|-------------|-------------|


E|-6-----5-----|-3-----------|-------------|-------------|-0-----1-----|-0-----------|
B|-------------|-------------|-8-----6-----|-5-----------|-------------|-------1-----|
G|-------------|-------------|-------------|-------------|-------------|-------------|
D|-------------|-------------|-------------|-------------|-------------|-------------|
A|-------------|-------------|-------------|-------------|-------------|-------------|
E|-------------|-------------|-------------|-------------|-------------|-------------|


E|-------------|-1-----0-----|-------5-----|-------------|-------8-----|-------------|
B|-3-----------|-------------|-3-----------|-6-----5-----|-------------|-6-----5-----|
G|-------------|-------------|-------------|-------------|-------------|-------------|
D|-------------|-------------|-------------|-------------|-------------|-------------|
A|-------------|-------------|-------------|-------------|-------------|-------------|
E|-------------|-------------|-------------|-------------|-------------|-------------|


E|--------|-1-----0-----|-5-----8-----|-------------|-------------|-1-----0-----|-5-----------|
B|--------|-------------|-------------|-------6-----|-5-----------|-------------|-------6-----|
G|--------|-------------|-------------|-------------|-------------|-------------|-------------|
D|--------|-------------|-------------|-------------|-------------|-------------|-------------|
A|--------|-------------|-------------|-------------|-------------|-------------|-------------|
E|--------|-------------|-------------|-------------|-------------|-------------|-------------|


E|-------------|-------8-----|-6-----5-----|-------8-----|-10----12----|-0-----5-----|
B|-5-----------|-5-----------|-------------|-------------|-------------|-------------|
G|-------------|-------------|-------------|-------------|-------------|-------------|
D|-------------|-------------|-------------|-------------|-------------|-------------|
A|-------------|-------------|-------------|-------------|-------------|-------------|
E|-------------|-------------|-------------|-------------|-------------|-------------|


E|-3-----1-----|-0-----1-----|-3-----5-----|-------------|-------------|-------------|
B|-------------|-------------|-------------|-5-----1-----|-3-----------|-1-----0-----|
G|-------------|-------------|-------------|-------------|-------------|-------------|
D|-------------|-------------|-------------|-------------|-------------|-------------|
A|-------------|-------------|-------------|-------------|-------------|-------------|
E|-------------|-------------|-------------|-------------|-------------|-------------|


E|-------------|-0-----------|-5-----3-----|-------6-----|-------------|-------------|
B|-1-----3-----|-------1-----|-------------|-------------|-10----6-----|-5-----------|
G|-------------|-------------|-------------|-------------|-------------|-------------|
D|-------------|-------------|-------------|-------------|-------------|-------------|
A|-------------|-------------|-------------|-------------|-------------|-------------|
E|-------------|-------------|-------------|-------------|-------------|-------------|


E|-1-----3-----|-5-----------|-------------|-------1-----|-3-----1-----|-0-----------|
B|-------------|-------5-----|-1-----3-----|-------------|-------------|-------------|
G|-------------|-------------|-------------|-------------|-------------|-------------|
D|-------------|-------------|-------------|-------------|-------------|-------------|
A|-------------|-------------|-------------|-------------|-------------|-------------|
E|-------------|-------------|-------------|-------------|-------------|-------------|


E|-------1-----|-0-----------|
B|-3-----------|-------3-----|
G|-------------|-------------|
D|-------------|-------------|
A|-------------|-------------|
E|-------------|-------------|
Tap to rate this tab
 
# A B C D E F G H I J K L M N O P Q R S T U V W X Y Z