Song name
# A B C D E F G H I J K L M N O P Q R S T U V W X Y Z

Yasuharu Takanashi - Grey No Theme tab

Fairy Tail - Grey No Theme

Bass Intro
|------------------------------------|
|------------------------------------|
|------------------------------------|
|-0--0-3-0-5-0-3-0-5-0-3--0---0-0----|


main riff
|-------------------------------------------|
|-------------------------------------------|
|---12--9-9--7--9-9-----12----14----9--9----|
|---12--9-9--7--9-9-----12----14----9--9----|
|---10--7-7--5--7-7--10----12-----7----7----|
|-------------------------------------------|
    just strum to the beat
|---x-x-x-x--------------------------------------|
|---x-x-x-x--------------------------------------|
|-9-x-x-x-x--9-9-9\------------------------------|
|-9-x-x-x-x--9-9-9\------------------------------|
|-7-x-x-x-x--7-7-7\------------------------------|
|---x-x-x-x--------------------------------------|

melody
|------------------------------------------------------------|
|------------------------------------------------------------|
|--/9~-/7~--6~-6-7-6-4~---9~-/7~--6~-6-7--14-12--------------|
|------------------------------------------------------------|
|------------------------------------------------------------|
|------------------------------------------------------------|
harmony
|------------------------------------------------------------|
|--/17-/15-14---14-15-14-12---/17-/15-14---14-15-22-20-------|
|------------------------------------------------------------|
|------------------------------------------------------------|
|------------------------------------------------------------|
|------------------------------------------------------------|



|------------------------------------------------------------|
|-/12-0-10-0-9-10-0-/9-0-7-0-5-7-/9-0-7-0-5-7-5-0-4-0-2-4----|
|------------------------------------------------------------|
|------------------------------------------------------------|
|------------------------------------------------------------|
|------------------------------------------------------------|

|------------------------------------------------------------|
|-/12-0-10-0-9-10-0-/9-0-7-0-5-7-/9-0-7-0-5-7-5-0-4-0-2-4----|
|------------------------------------------------------------|
|------------------------------------------------------------|
|------------------------------------------------------------|
|------------------------------------------------------------|


|--11b12~-9b10r9b10~--11b12r11b12~--14b15r14b15~--13b14r13b14~--11b12r11b12~-|
|----------------------------------------------------------------------------|
|----------------------------------------------------------------------------|
|----------------------------------------------------------------------------|
|----------------------------------------------------------------------------|
|----------------------------------------------------------------------------|


|--11b12~-9b10r9b10~--11b12r11b12~--14b15r14b15~--16b17r16b17~--11b12r11b12~-|
|----------------------------------------------------------------------------|
|----------------------------------------------------------------------------|
|----------------------------------------------------------------------------|
|----------------------------------------------------------------------------|
|----------------------------------------------------------------------------|


|--11b12~-9b10r9b10~--11b12r11b12~--14b15r14b15~--16b17r16b17~--18B~~~~------|
|----------------------------------------------------------------------------|
|----------------------------------------------------------------------------|
|----------------------------------------------------------------------------|
|----------------------------------------------------------------------------|
|----------------------------------------------------------------------------|

|-------------------------------------------|
|-------------------------------------------|
|---12--9-9--7--9-9-----12----14----9--9----|
|---12--9-9--7--9-9-----12----14----9--9----|
|---10--7-7--5--7-7--10----12-----7----7----|
|-------------------------------------------|

|-----------------------------------------------|
|-------------------------------------13----15--|
|---12--9-9--7--9-9-----12----14------12----14--|
|---12--9-9--7--9-9-----12----14---10----12-----|
|---10--7-7--5--7-7--10----12-------------------|
|-----------------------------------------------|

|-------------------------------------------|
|-------------------------------------------|
|---12--9---7--9-9--------------------------|
|---12--9---7--9-9--------------------------|
|---10--7---5--7-7--------------------------|
|-------------------------------------------|
Tap to rate this tab
# A B C D E F G H I J K L M N O P Q R S T U V W X Y Z