Song name
# A B C D E F G H I J K L M N O P Q R S T U V W X Y Z

Yasuharu Takanashi - Impregnable tab

-------------------------------------------------------------------------------
                             Impregnable  - Yasuharu Takanashi
-------------------------------------------------------------------------------
Hi!
i didnīt see this tab anywhere(wierd since itīs really simple).
if you have corrections, feel free to take the tab and re-post it or comment :).

i donīt have an account but i had uploaded some more anime tabs

http://tabs.ultimate-guitar.com/y/yasuharu_takanashi/grey_no_theme_tab.htm

http://tabs.ultimate-guitar.com/y/yoshida_brothers/rising_tab.htm



Tuning: Standard

Intro
e|------------------------------|
B|------------------------------|
G|------------------------------|
D|-4-4-4-----------------4-4-4--|
A|-4-4-4-----------------4-4-4--|
E|-2-2-2-x-x-x-x-2h3p2p0-2-2-2--|

Chorus
e|----------12-14--/19-17-14---------------------|
B|-12-14-15------------------17-15-17b-17b-17----|
G|-----------------------------------------------|
D|-----------------------------------------------|
A|-----------------------------------------------|
E|-----------------------------------------------|
                                              |to verse
e|----------12-14--/19-17-14--------17b-17b-17-|-/19|
B|-12-14-15------------------17-15-------------|----|
G|---------------------------------------------|----|
D|---------------------------------------------|----|
A|---------------------------------------------|----|
E|---------------------------------------------|----|

Verse Ryhtm
e|---------------------------------------------------|
B|---------------------------------------------------|
G|---------------------------------------------------|
D|--------7-------9-------10------9------------------|
A|--------5-------7-------8-------7----8-------------|
E|-7-7-77---77-77---77-77---77-77---77-6-------------|
Verse Slide Melody
e|---------------------------------------------------|
B|---------------------------------------------------|
G|--/16-11-/14-13--9-11------/16-11-/14-13--9-11-/16-|
D|----------------------9----------------------------|
A|---------------------------------------------------|
E|---------------------------------------------------|
Verse Slide Melody: Harmony
e|--/19-14-/17-16-12-14-----/19-14-/17-16-12-14--/19-|
B|----------------------12---------------------------|
G|---------------------------------------------------|
D|---------------------------------------------------|
A|---------------------------------------------------|
E|---------------------------------------------------|

Chorus

End





************************************

| /   slide up
| \   slide down
| h   hammer-on
| p   pull-off
| ~   vibrato
| +   harmonic
| x   Mute note
| b   Bend
| pb  Pre-bend
| br  Bend release
| pbr Pre-bend release
| brb Bend release bend

************************************
Tap to rate this tab
 
# A B C D E F G H I J K L M N O P Q R S T U V W X Y Z