Song name
# A B C D E F G H I J K L M N O P Q R S T U V W X Y Z

Yasuharu Takanashi - An Arrow For Interrupting Fate tab

An Arrow for Interrupting Fate - Yasuharu Takanashi

Tabbed by: Kotonaruwind
E-mail: abandonedstrings@gmail.com

Tuning: standard

 (0:00 - 0:10)
e|-----------14-----------------------------14-------------------------------|
B|--15---17------12--14--15--14----15---17------12--14--12-------------------|
G|----------------------------------------------------------14---------------|
D|---------------------------------------------------------------------------|
A|---------------------------------------------------------------------------|
E|---------------------------------------------------------------------------|

 (0:11 - 0:20)
e|-----------14------------------------------------12------------------------|
B|--15---17------12--14--12--14----15--12--14--15------10--12----------------|
G|---------------------------------------------------------------------------|
D|---------------------------------------------------------------------------|
A|---------------------------------------------------------------------------|
E|---------------------------------------------------------------------------|

 (0:21 - 0:32)
e|---------------17--/16-----------------------------------------------------|
B|--15--17--19------------19--17--15--17--19---15--12------------------------|
G|---------------------------------------------------------------------------|
D|---------------------------------------------------------------------------|
A|---------------------------------------------------------------------------|
E|---------------------------------------------------------------------------|

 (0:33 - end)
e|---------------------------------------------------------------------------|
B|--17--19--17--15--17------14--12-------------------------------------------|
G|----------------------14---------------------------------------------------|
D|---------------------------------------------------------------------------|
A|---------------------------------------------------------------------------|
E|---------------------------------------------------------------------------|

Track 28 in Fairy Tail: Priestess of the Phoenix original soundtrack, in a movie it's
played when Erza fires the arrow into the phoenix
Tap to rate this tab
# A B C D E F G H I J K L M N O P Q R S T U V W X Y Z