Song name
# A B C D E F G H I J K L M N O P Q R S T U V W X Y Z

Yasuharu Takanashi - Against Magic tab

Against Magic - Yasuharu Takanashi

Tabbed by: Kotonaruwind
E-mail: abandonedstrings@gmail.com

Tuning: standard

 (0:00 - 0:26)
e|---------------------------------------------------------------------------|
B|-----------6--5------------------------------------------------------------|
G|-----7--7--------7--5-7-----7--7--5----5--7--------------------------------|
D|--5----------------------5-----------8-------7-----------------------------|
A|---------------------------------------------------------------------------|
E|---------------------------------------------------------------------------|


e|---------------------------------------------------------------------------|
B|-----------6--5------------------------------------------------------------|
G|-----7--7--------7--5-7-----7--7--5----5--7--------------------------------|
D|--5----------------------5-----------8-------5-----------------------------|
A|---------------------------------------------------------------------------|
E|---------------------------------------------------------------------------|

e|---------------------------------------------------------------------------|
B|-----------6--5------------------------------------------------------------|
G|-----7--7--------7--5-7-----7--7--5----5--7--------------------------------|
D|--5----------------------5-----------8-------7-----------------------------|
A|---------------------------------------------------------------------------|
E|---------------------------------------------------------------------------|


e|---------------------------------------------------------------------------|
B|-----------6--5------------------------------8-----------------------------|
G|-----7--7--------7--5-7-----7--7--5----5--7--------------------------------|
D|--5----------------------5-----------8-------------------------------------|
A|---------------------------------------------------------------------------|
E|---------------------------------------------------------------------------|

(0:26 - 0:51)
e|---------------------------------------------------------------------------|
B|--------------------------------------------------13--15-------------------|
G|------15--14--15--14----------12------15--14--15----------15--12-----------|
D|--12------------------12--15------12---------------------------------------|
A|---------------------------------------------------------------------------|
E|---------------------------------------------------------------------------|

e|---------------------------------------------------------------------------|
B|----------------------------------15--13------------------13---16--15------|
G|------15--14--15--14----------12----------15--14--12--14-------------------|
D|--12------------------12--15-----------------------------------------------|
A|---------------------------------------------------------------------------|
E|---------------------------------------------------------------------------|

 (0:52 - 1:17)
e|---------------------------------------------------------------------------|
B|---------------------------------------------------------------------------|
G|--12------12--14--12--11--12------12--14--15--14--15------15--17--15--14---|
D|------12----------------------12----------------------15-------------------|
A|---------------------------------------------------------------------------|
E|---------------------------------------------------------------------------|

e|---------------------------------------------------------------------------|
B|---------------------------------------------------------------------------|
G|--15--17-15-14-------------------------------------------------------------|
D|----------------15--17-----------------------------------------------------|
A|---------------------------------------------------------------------------|
E|---------------------------------------------------------------------------|

e|---------------------------------------------------------------------------|
B|---------------------------------------------------------------------------|
G|--12------12--14--12--11--12------12--14--15--14--15------15--17--15--14---|
D|------12----------------------12----------------------15-------------------|
A|---------------------------------------------------------------------------|
E|---------------------------------------------------------------------------|

e|---------------------------------------------------------------------------|
B|---------------------------------------------------------------------------|
G|--15--17-15-14-------------------------------------------------------------|
D|----------------15--17-----------------------------------------------------|
A|---------------------------------------------------------------------------|
E|---------------------------------------------------------------------------|

 (1:17 - end)
e|---------------------------------------------------------------------------|
B|-----------6--5------------------------------------------------------------|
G|-----7--7--------7--5-7-----7--7--5----5--7--------------------------------|
D|--5----------------------5-----------8-------7-----------------------------|
A|---------------------------------------------------------------------------|
E|---------------------------------------------------------------------------|


e|---------------------------------------------------------------------------|
B|-----------6--5------------------------------8-----------------------------|
G|-----7--7--------7--5-7-----7--7--5----5--7--------------------------------|
D|--5----------------------5-----------8-------------------------------------|
A|---------------------------------------------------------------------------|
E|---------------------------------------------------------------------------|

Lead part of "Against Magic",Fairy Tail Soundtrack Vol.1 , track 28, I hope it'll be 
helpful to someone.
Tap to rate this tab
 
# A B C D E F G H I J K L M N O P Q R S T U V W X Y Z