Song name
# A B C D E F G H I J K L M N O P Q R S T U V W X Y Z

Yasunori Mitsuda - Times Scar tab

Time's scar
Yasunori Mitsuda


This song, along with the whole album and the rest of Mitsuda's work is some 
of the best music ever written, unequaled in the video game industry. Anyone 
who has ever played Chrono Cross will always remember the intro, for it had 
such a both audio and visual experience, and simply put, this song is 
awesome. After searching the web far and hard for a good guitar tab, and 
with few results, I decided to take the time and tab it out myself. I am 
positive that this tab is 100% accurate, so enjoy!


Intro
------------------|-------------------|------------------|---------0--------|
---------3-----3--|---------3------3--|---------3-----3--|---------3--------|
-------0-----0----|-------0------0----|-------0-----0----|-------0----------|
-----4-----4------|-----4------4------|-----4-----4------|-----4------------|
---2--------------|---2---------------|---2--------------|---2--------------|
-0----------------|-0-----------------|-0----------------|-0----------------|

Verse 1
------------------|-------------------|---------0--------|---------0--------|
---------3-----3--|---------3------3--|-------3-------3--|-------3----------|
-------0-----0----|-------0------0----|-----0-------0----|-----0-------0----|
-----4-----4------|-----4------4------|---4-------4------|---4-------4---4--|
---2--------------|---2---------------|-3----------------|-3----------------|
-0----------------|-0-----------------|------------------|------------------|

------------------|---------20--------|----------0--0----|-----------0--0---|
---------3-----3--|-------3----3------|----------0--0----|-----------0--0---|
-------0-----0----|-----0--------0----|-------2--2--2----|--------2--2--2---|
-----4-----4------|---4------------0--|-----3------3--3--|-------3-----3--3-|
---2--------------|-------------------|---3--------------|---3--------------|
-0----------------|-0-----------------|-1----------------|-1----------------|

------------------|---------20--------|---------2--------|-0----------------|
---------3-----3--|-------3----3------|-----3---3---3----|-------0-1--------|
-------0-----0----|-----0--------0----|-----0---2-2---2--|-----0-------0----|
-----4-----4------|---4------------0--|---0---0----------|---3-------2---2--|
---2--------------|-------------------|------------------|------------------|
-0----------------|-0-----------------|-3----------------|------------------|

---------2--------|-0---0-------------|
-0-----3-----3----|---3----------3----|
-0---0-----2---2--|-0---0----------0--|
-0-0--------------|---3------2h3------|
------------------|-------------------|
------------------|-------------------|
Tap to rate this tab
 
# A B C D E F G H I J K L M N O P Q R S T U V W X Y Z