Song name
# A B C D E F G H I J K L M N O P Q R S T U V W X Y Z

Yavuz Cetin - Istanbula Ait tab

       Giris

e|-------------------------0-------0-----0-------5-------5------|
B|-----0---0---3-2h3p2-------0-------0-----0---5-------5--------|
G|-2/4---4---4---------4-2------/9-----9-------7---7---6--------|    X2
D|--------------------------------------------------------------|
A|--------------------------------------------------------------|
E|--------------------------------------------------------------|


   Uzak kalmayi denedim senden olmadi
e|-----0-----------------------0----------|
B|------0----------------------0----------|
G|-4-4---4---------------------2----------|    
D|----------------------------------------|
A|----------------------------------------|
E|----------------------------------------|

   Eksik olan bir seyler var hep yoklugunda
e|--2------2-------2------2------0--------|
B|--3------3-------3------3------0--------|
G|--4------4-------4------4------2--------|    
D|----------------------------------------|
A|----------------------------------------|
E|----------------------------------------|

     Cihangir sokaklari huzursuz insanlar
e|--------------------------------------------|
B|---3-------2-----3-2--3--------2----3-2-----|
G|---2-------2-----2-2--2--------2----2-2-----|    
D|---0-------2-----2-2--0--------2----2-2-----|
A|-----------0-----0-0-----------0----0-0-----|
E|--------------------------------------------|
 
      Artik hic atmayan bu kalbim 
e|--------------------------------------------|
B|---3-----------------------------3-3-3-2----|
G|---2-----------------------------2-2-2-2----|    
D|---0-----------------------------0-0-0-0----|
A|--------------------------------------------|
E|--------------------------------------------|

   Istanbul'a ait olmus           Istanbul'a ait olmus
e|----------------------------------------------------|
B|--2--------3------2---3-3-3-2---2-------3------2----|
G|--2--------4------2---2-2-2-2---2-------4------2----|    
D|--2--------4------2---0-0-0-0---2-------4------2----|
A|--0--------2------0-------------0-------2------0----|
E|----------------------------------------------------|    



e|-------------------------0-------0-----0-------5-------5------|
B|-----0---0---3-2h3p2-------0-------0-----0---5-------5--------|
G|-2/4---4---4---------4-2------/9-----9-------7---7---6--------|    X2
D|--------------------------------------------------------------|
A|--------------------------------------------------------------|
E|--------------------------------------------------------------|


   Disarda vahsi bir dunya evler huzursuz

   Arkadaslar hep sikintili dostluklar donmus

   Yasayan bir sey var burda hala bir butunun parcası olmusuz

   Biz artık yasamayan insanlar 

   Istanbul'a ait olduk Istanbul'a ait olduk


       Solo

e|-----7--7--7---------------10b-10--7------7h10p7----7-------7-----------|
B|------------------------------------7-10b--------10--7--10b--10-7--10p7-|
G|---9b-9b-9b-9b-9p7---7-------------------------------------------9------|    
D|-------------------9----------------------------------------------------|
A|------------------------------------------------------------------------|
E|------------------------------------------------------------------------|

e|------7-----------------------------------------------------------------|
B|-----7--10-7------------------------------------------------------10-10-|
G|---9b--------9b9p7---9p7--7----------7-7-----------------7-7--9/11------|    
D|-------------------9-----9--9-7-9----7-7h9p7---7h9p7---/9---------------|
A|----------------------------------/9---------9--------------------------|
E|------------------------------------------------------------------------|

e|------12---12-----12---12---12---12---12---12---12----------------------|
B|---12b--12b----12b--12b--12b--12b--12b--12b--12b--12b12p10--10h12-------|
G|------------------------------------------------------------------------|    
D|------------------------------------------------------------------------|
A|------------------------------------------------------------------------|
E|------------------------------------------------------------------------|


   Uzak kalmayi denedim senden    olmadi
e|------------------------------------------|
B|----------------------10h12-10--9h10-9----|
G|--------------------------------------9---|    
D|------------------------------------------|
A|------------------------------------------|
E|------------------------------------------|

   Eksik olan bir seyler var hep yoklugunda

   Cihangir sokakları huzursuz insanlar

   Artık hic atmayan bu kalbim

   Istanbul'a ait olmus Istanbul'a ait olmus

e|----------------------12---12---12---12---12---12---12---12---12---12--|
B|------------10-10--12b--12b--12b--12b--12b--12b--12b--12b--12b--12b----|
G|------9-9/11-----------------------------------------------------------|    
D|---/11-----------------------------------------------------------------|
A|-----------------------------------------------------------------------|
E|-----------------------------------------------------------------------|

e|----------------------17---------|
B|---12b12p10--10-------17--17-----|
G|-----------11------/18----16h18--|    
D|---------------------------------|
A|---------------------------------|
E|---------------------------------|
Tap to rate this tab
# A B C D E F G H I J K L M N O P Q R S T U V W X Y Z