Song name
# A B C D E F G H I J K L M N O P Q R S T U V W X Y Z

Yavuz Cetin - Bilmem Neden Inat Ettim chords

Highlighted       Show chord diagrams

 e|----2----------4----------5----------7---------0--------x----|
 B|----1----------3----------7----------9---------0--------3----|
 G|----2----------4----------7----------9---------2--------2----|
 D|----4----------6----------5----------7---------2--------2----|
 A|----2----------4----------5----------7---------0--------x----|
 E|----x----------x----------x----------x---------x--------x----|
      Bm7        C#m7      Gmaj9      Amaj9      A5      A sus4


  A                      E
  Dün gece son defa konuştuk
  A                    E
  Nehirin sonunda buluştuk
  Bm7       C#m7    Gmaj9   Amaj9    A5
  Hiç üzülmüyorum desem        yalan olur



  A                      E
  İstediklerin bende yok belki
  A                  E
  İstemediklerin çok belki
  Bm7      C#m7   Gmaj9      Amaj9       A5
  Bana şans vermeyi        hiç istemedin ki



B               A            E
  Seni tanımak için çok çaba sarf ettim
    C            A
  Başından vazgeçmeliydim
     C         D      A5
  Bilmem neden inat ettim?



Solo

e|-----------5---5------------------------------|
B|-------5---5h7-5----5---5----2----------------|
G|---4/6---6----------4h6-4----2h4-2-------2----|
D|----------------------------------4---2-4-4---|
A|----------------------------------------------|
E|----------------------------------------------|

e|----------------------------5-5-7---5-2---2---------------------------------x-----|
B|-----------------5-5-7---5/7-----------5p2-5p2-5p2---2----------------------x-----|
G|------2-2-4---4/6-----------------------------4---4p2-4p2-4p2---2-----------x-----|
D|---2h4---------------------------------------------------4---4p2-4p2-4p2----x-----|
A|--------------------------------------------------------------------4---4p2-x-----|
E|----------------------------------------------------------------------------x-5b-2|


  A                    E
  Senin için dağları aştım
  A                   E
  Bulutları avcuna koydum
  Bm7    C#m7          Gmaj9   Amaj9   A5
  Gülüşünden bir parça istedim    vermedin


  A                    E
  Senin için kendimi aştım
  A                     E
  İnan buna ben bile şaştım
  Bm7        C#m7      Gmaj9   Amaj9         A5
  Her şey bitti dediğinde      biraz aptal oldum


B               A            E
  Seni tanımak için çok çaba sarf ettim
    C            A
  Başından vazgeçmeliydim
     C         D      A5
  Bilmem neden inat ettim?



Saksafon Solo  :  A E A E Bm7 C#m7 Gmaj9 Amaj9 A5  (X2)



B               A            E
  Seni tanımak için çok çaba sarf ettim
    C            A
  Başından vazgeçmeliydim
     C         D      A5
  Bilmem neden inat ettim?


     A sus4     A sus4  A5
  Bilmem neden inat   ettim?
Tap to rate this tab
# A B C D E F G H I J K L M N O P Q R S T U V W X Y Z