Song name
# A B C D E F G H I J K L M N O P Q R S T U V W X Y Z

Yawning Man - Rock Formations tab

e|-------------------------------------------------------------------|
B|-------------------------------------------------------------------|
G|----------------------------------------------------------1-1-1-1--|
D|----1-2-0-----------------2-2-2-2---1-2-0-----------------2-2-2-2--|
A|--2-------2-2-2-2-2-2-2-2-0-0-0-0-2-------2-2-2-2-2-2-2-2----------|
E|-------------------------------------------------------------------|

e|---4-4-4-5-5-4-2--p0v------4-4-4-5-5-4-2--p0v----------0--|
B|-------------------------------------------------0-3s5----|
G|----------------------------------------------------------|
D|----------------------------------------------------------|
A|----------------------------------------------------------|
E|----------------------------------------------------------|

e|--------------------------------------------------------|
B|--------------------------------------------------------|
G|--------------------------------------------------------|
D|--0--5v-----------0----1-2-0-0--5v----------------------|
A|----------------0----2----------------------------------|
E|---------1-1-3----------------------1-1-3--3-3-3-3-3-3--|

e|---------------------------------------------------------|
B|---------------------------------------------------------|
G|---------------------------------------------------------|
D|---------------------------------------------------------|
A|---------------------------------------------------------|
E|--0-3-5-5-5v--5--6-8-8-8v--8--3-5-5-5v--5-0-1-3-3-3v--3--|

e|----------------------------------|
B|----------------------------------|
G|----------------------------------|
D|----------------------------------|
A|----------------------------------|
E|---0-1-3-3-3-3-3-3-3-3-3-3-3-3-3--|

e|----------------------5---------2-----2--------|
B|----0v---0-2v---0-2-2-------2h3---2h3---3-2-0--|
G|-----------------------------------------------|
D|--2--------------------------------------------|
A|-----------------------------------------------|
E|-----------------------------------------------|

legend:
v = vibrato
h = hammer on
p = pull-off

listen to the song to get the timing right
Tap to rate this tab
 
# A B C D E F G H I J K L M N O P Q R S T U V W X Y Z