Song name
# A B C D E F G H I J K L M N O P Q R S T U V W X Y Z

Yawning Man - Buffalo Chips tab

the basic riffs (there are a few variations in the song)

|-0^--0--|
|-3^--0--|
|-0^--X--|
|-----2--|
|--------|
|--------| 

|-5--5--5-3-----------------0-------|
|-----------5--3--3--3-5-0--0----3^-|
|---------------------------x-------|
|---------------------------2-------|
|-----------------------------------|
|-----------------------------------|

|-------------------------0------2-2-2------------0-------|
|----0-7-7-7p8---2-2-2p3--0---3^---------2-2-2p3--0---3^--|
|-------------------------x-----------------------x-------|
|-------------------------2-----------------------2-------|
|---------------------------------------------------------|
|---------------------------------------------------------|

|---------------------------0-------|
|---------------------------0----3^-|
|---------------------------x-------|
|-2--2--2-0-----------------2-------|
|-----------2-----------------------|
|--------------3--3--3-5-0----------|

|-----------------------------------------------------|
|---------------------------8-8b10r8---8-10-10b12r10--|
|---7-7b9r7---7-9-9b11r---9---------------------------|
|-9---------------------------------------------------|
|-----------------------------------------------------|
|-----------------------------------------------------|


|----------------------------------------------------------------------------------------------0-|
|--8-10-8----10--------------------------------------------------------------------------------0-|
|9--------9------9-----7----7-9-7----7--6----------4-6-4----4-2---0----0-----------------------x-|
|-------------------9-----9-------9--------7--9--5-------5------2----2---2-0-------------------2-|
|----------------------------------------------------------------------------2----5---5---5------|
|-------------------------------------------------------------------------------3---3---3---3----|

legend
^ = vibrato
b = bend
r = release bend
x = mute string

this tab isn't perfect... leave a comment with suggestions thanks
Tap to rate this tab
# A B C D E F G H I J K L M N O P Q R S T U V W X Y Z