Song name
# A B C D E F G H I J K L M N O P Q R S T U V W X Y Z

Yawning Man - Sonny Bono Memorial Freeway tab

-----------------------------------------------------------------
Sonny Bono Memorial Freeway - Yawning Man
-----------------------------------------------------------------
Tuning: standard

e|---------------------------------------------------------------|
B|---------7v--3v------------------------------------------------|
G|-2-------------------------------------------------------------|
D|-0---5v-----------0v---0v---0v---0v----------------------------|
A|---------------------------------------------------------------|
E|---------------------------------------------------------------|

e|---------------------------------------------------------------|
B|---------------------------------------------------------------|
G|----------------------------------------------5-2--------------|
D|----------------------------------2-4-4br-2--------------------|
A|-5---3--2-3-0--------------0---3-------------------------------|
E|--------------5---3--2-3-0-------------------------------------|

e|---------------------------------------------------------------|
B|---------------------------------------------------------------|
G|---------------------------------------------------------------|
D|-0v---0v---0v---0v---0v---0v---0v---0v---0v---0v---0v---0v-----|
A|---------------------------------------------------------------|
E|---------------------------------------------------------------|
Tap to rate this tab
# A B C D E F G H I J K L M N O P Q R S T U V W X Y Z