Song name
# A B C D E F G H I J K L M N O P Q R S T U V W X Y Z

Yeah Yeah Yeahs - Man tab

Artist: Yeah Yeah Yeahs
Album: Fever To Tell
Song: Man

Verse (1st bit)

E|------------------------------------------|
B|------8------------------8----------------|
G|------11b12--7--9--------11b12--7--9/-----| (x2)
D|------------------------------------------|
A|------------------------------------------|
E|--0-------------------0-------------------|


Interlude

E|-----------------------------------------------------------|
B|-----------------------------------------------------------|
G|-----------------------------------------------------------|
D|--5-5-5-5-5-5-5-5------------------------------------------|
A|--5-5-5-5-5-5-5-5--(x3)--//-17-17-17-17-17-17-17-17--------|
E|--3-3-3-3-3-3-3-3--------//-15-15-15-15-15-15-15-15--------|


Verse (2nd bit)

E|------------------------------------------|
B|-----8-----------------8------------------|
G|-----11b12---7--9------11b12--------------| 
D|-----------------------------5---7--------|
A|-----------------------------5---7--------|
E|--0----------------0---------3---5--------|

E|------------------------------------------|
B|-----8-----------------8------------------|
G|-----11b12---7--9------11b12---7--9/------|
D|------------------------------------------|
A|------------------------------------------|
E|--0----------------0----------------------|

PreChorus

E|-----------------------------------------------------------|
B|-----------------------------------------------------------|
G|-----------------------------------------------------------|
D|--7-7-7-7-7-7-7-7------------------------------------------|
A|--7-7-7-7-7-7-7-7--(x3)--//-19-19-19-19-19-19-19-19--------|
E|--5-5-5-5-5-5-5-5--------//-17-17-17-17-17-17-17-17--------|


Chorus (gtr.1)

E|----------------------------------------------------------||
B|----------------------------------------------------------||
G|----------------------------------------------------------||
D|--9\-------------------7------9\-------------------7------||
A|--7\------------5------5------7\------------5------5------||
E|----------------3---------------------------3-------------||


Chorus (gtr.2 with slide)

E|----------------------------------------------------------||
B|----------------------------------------------------------||
G|------9\\8//9~~~-------------------9\\8//9~~~-------------||
D|------9\\8//9~~~-------------------9\\8//9~~~-------------|| 
A|-----------------------------------------------------------|
E|-----------------------------------------------------------|


Middle bit

E|------------------------------------------------------------|
B|-----8----------------8-----------------8-------------------|
G|-----11b12---7--9------11b12------------11b12--7--9---------| 
D|-----------------------------5---7--------------------------|
A|-----------------------------5---7--------------------------|
E|--0----------------0---------3---5---0----------------------|


E|-----------------------------------------------15--17-------|
B|-----8-----------------8----------------8-------------------|
G|-----11b12--7--9------11b12---7--9/-----11b12---------------|
D|------------------------------------------------------------|
A|------------------------------------------------------------|
E|--0----------------0-----------------0----------------------|
Tap to rate this tab
# A B C D E F G H I J K L M N O P Q R S T U V W X Y Z