Song name
# A B C D E F G H I J K L M N O P Q R S T U V W X Y Z

Yeah Yeah Yeahs - Warrior tab

Great Song Standard Tuning
Intro: Am G
Chorus: Am G

Verse: 
|-0-0--0--0--0-0-0------------------------------|
|-1-1-----1--1-1-1------------------------------|
|-2-2--------2-2-2------------------------------|
|-2-2--------2-2-2------------------------------|
|-0-0--------0-0-0------------2--5--------2--5--|
|---------------------3--5--------3--5----------|

 Listen carefully in the verse as one of the bars differs slightly:
|-0-0--0--0-1p0--0-0-0------------------------------|
|-1-1-----1------1-1-1------------------------------|
|-2-2------------2-2-2------------------------------|
|-2-2------------2-2-2------------------------------|
|-0-0------------0-0-0----------2--5--------2--5----|
|------------------------3--5---------3--5----------|

Guitar Break: (Repeat)
|----------------------------------------------|
|----------------------------------------------|
|----------------------------------------------|
|-7-7-7-10-10-10-14-14-14-17-17-17-19-19-19----|
|-7-7-7-10-10-10-14-14-14-17-17-17-19-19-19----|
|-5-5-5-8--8--8--12-12-12-15-15-15-17-17-17----|
                                                   
|----------------------------------------------|
|----------------------------------------------|
|-------7-7-7-------7-7-7-----7----------------|
|-5-5-5-7-7-7-5-5-5-7-7-7-5-5-7----------------|
|-5-5-5-5-5-5-5-5-5-5-5-5-5-5-5----------------|
|-3-3-3-------3-3-3-------3-3------------------|

Tap to rate this tab
 
# A B C D E F G H I J K L M N O P Q R S T U V W X Y Z