Song name
# A B C D E F G H I J K L M N O P Q R S T U V W X Y Z

Yeah Yeah Yeahs - Shame And Fortune tab

Tuning: Dropped C

e|-----------------------------|
B|-----------------------------|
G|-----------------------------|
D|-----------------------------| x4  
A|-----------------------------|
C|--0-0-0-0-0-5-5-0-0-0-0-0-5~-|
Variaton:
e|---------------|
B|---------------|
G|---------------|
D|---------------|  
A|---------------|
C|--0-0-0-0-0-3-3|

Chorus:
e|-----------------------------------------|
B|-----------------------------------------|
G|-----------------------------------------|
D|--------------10-10--------------8-8-----|  repeat
A|--3-3-3-3-3-3-8--8--3-3-3-3-3-3--6-6-----|
C|--0-0-0-0-0-0-0--0--0-0-0-0-0-0--0-0-----|
Bridge:
e|---------------|
B|---------------|
G|---------------|
D|---------------| 
A|---------------|
C|--0-0-0-0-0-0-x|
Melody:
e|----------------------------------------|
B|----------------13----------------------|
G|-12s15-15-12-15-------------------------|
D|-------------------13s15-15-13-15-13----| repeat that 
A|------------------------------------15--|
C|----------------------------------------|


theres a variation in the chorus that i didnt figure out yet.
no hard sogn to play. you can definetly figure it out yourself
Tap to rate this tab
 
# A B C D E F G H I J K L M N O P Q R S T U V W X Y Z