Song name
# A B C D E F G H I J K L M N O P Q R S T U V W X Y Z

Yeah Yeah Yeahs - Pin tab

Tuned in EBEBBe tuning, from low to high. Every other tab online is wrong. This is
how Nick Zinner plays the song.
The strings are labeled as they would be in regular tuning.

Intro
e|-------------------------|
B|-------------------------|
G|12-12-12-12-12-12-12-12--|
D|10-10-10-10-10-10-10-10--|
A|-------------------------|
E|-------------------------|

Verse X3
e|---------------------------------------|
B|---------------------------------------|
G|12-12-12-12-12/7-7-7-5-5-5-5-5/3-3-3---|
D|10-10-10-10-10/5-5-5-7-7-7-7-7/1-1-1---|
A|---------------------------------------|
E|---------------------------------------|

e|---------------------------------------|
B|---------------------------------------|
G|12-12-12-12-12/7-7-7-5-5-5-5-5/8-8-8---|
D|10-10-10-10-10/5-5-5-7-7-7-7-7/6-6-6---|
A|---------------------------------------|
E|---------------------------------------|

Then this once
e|---------------------------------------|
B|---------------------------------------|
G|12-12-12-12-12/7-7-7-5-5-5-5-5/3-3-3---|
D|10-10-10-10-10/5-5-5-7-7-7-7-7/1-1-1---|
A|---------------------------------------|
E|---------------------------------------|

e|---------------------------------------|
B|---------------------------------------|
G|12-12-12-12-12/7-7-7-5-5-5-5-5-5-5-5---|
D|10-10-10-10-10/5-5-5-7-7-7-7-7-7-7-7---|
A|---------------------------------------|
E|---------------------------------------|

Chorus X3
e|---------------------------------------|
B|---------------------------------------|
G|---------------------------------------|
D|10h12-10h12-10h12-10h12----------------|
A|10h12-10h12-10h12-10h12----------------|
E|10h12-10h12-10h12-10h12----------------|

e|---------------------------------------|
B|---------------------------------------|
G|---------------------------------------|
D|3-3-3-3-3-3-3-3------------------------|
A|3-3-3-3-3-3-3-3------------------------|
E|3-3-3-3-3-3-3-3------------------------|

Then this once
e|---------------------------------------|
B|---------------------------------------|
G|---------------------------------------|
D|10h12-10h12-10h12-10h12----------------|
A|10h12-10h12-10h12-10h12----------------|
E|10h12-10h12-10h12-10h12----------------|

e|---------------------------------------|
B|---------------------------------------|
G|---------------------------------------|
D|3-3-3-3/10-10-10-10--------------------|
A|3-3-3-3/10-10-10-10--------------------|
E|3-3-3-3/10-10-10-10--------------------|

Bridge part 1 (Whammy bar and wah pedal if you have them.)
e|15---14---12---10-10-10-10-------------|
B|12---12---12---10-10-10-10-------------|
G|12---12---12---10-10-10-10-------------|
D|12---12---12---10-10-10-10-------------|
A|---------------------------------------|
E|---------------------------------------|

Bridge part 2
e|----------------------------12-12-12-12-|
B|----------------------------------------|
G|----------------------------------------|
D|0-0-0-0-0-0-0-0/12-12-12-12-------------|
A|----------------------------------------|
E|----------------------------------------|

Verse X3
e|---------------------------------------|
B|---------------------------------------|
G|12-12-12-12-12/7-7-7-5-5-5-5-5/3-3-3---|
D|10-10-10-10-10/5-5-5-7-7-7-7-7/1-1-1---|
A|---------------------------------------|
E|---------------------------------------|

e|---------------------------------------|
B|---------------------------------------|
G|12-12-12-12-12/7-7-7-5-5-5-5-5/8-8-8---|
D|10-10-10-10-10/5-5-5-7-7-7-7-7/6-6-6---|
A|---------------------------------------|
E|---------------------------------------|

Then this once
e|---------------------------------------|
B|---------------------------------------|
G|12-12-12-12-12/7-7-7-5-5-5-5-5/3-3-3---|
D|10-10-10-10-10/5-5-5-7-7-7-7-7/1-1-1---|
A|---------------------------------------|
E|---------------------------------------|

e|---------------------------------------|
B|---------------------------------------|
G|12-12-12-12-12/7-7-7-5-5-5-5-5-5-5-5---|
D|10-10-10-10-10/5-5-5-7-7-7-7-7-7-7-7---|
A|---------------------------------------|
E|---------------------------------------|

Chorus X3
e|---------------------------------------|
B|---------------------------------------|
G|---------------------------------------|
D|10h12-10h12-10h12-10h12----------------|
A|10h12-10h12-10h12-10h12----------------|
E|10h12-10h12-10h12-10h12----------------|

e|---------------------------------------|
B|---------------------------------------|
G|---------------------------------------|
D|3-3-3-3-3-3-3-3------------------------|
A|3-3-3-3-3-3-3-3------------------------|
E|3-3-3-3-3-3-3-3------------------------|

Then this once
e|---------------------------------------|
B|---------------------------------------|
G|---------------------------------------|
D|10h12-10h12-10h12-10h12----------------|
A|10h12-10h12-10h12-10h12----------------|
E|10h12-10h12-10h12-10h12----------------|

e|---------------------------------------|
B|---------------------------------------|
G|---------------------------------------|
D|3-3-3-3/10-10-10-10--------------------|
A|3-3-3-3/10-10-10-10--------------------|
E|3-3-3-3/10-10-10-10--------------------|

Outro
e|-------------------------------------------------------------------|
B|-------------------------------------------------------------------|
G|12-12-12-12-12-12-12-12-12-12-12-12-12-12-12-12-1212121212121212-0-|
D|12-12-12-12-12-12-12-12-12-12-12-12-12-12-12-12-1212121212121212-0-|
A|12-12-12-12-12-12-12-12-12-12-12-12-12-12-12-12-1212121212121212-0-|
E|-------------------------------------------------------------------|
Tap to rate this tab
# A B C D E F G H I J K L M N O P Q R S T U V W X Y Z