Song name
# A B C D E F G H I J K L M N O P Q R S T U V W X Y Z

Yeah Yeah Yeahs - Soft Shock tab

The chords have already been submitted so here's those little riffs.

Intro

e|-----5-------5-------5---7-----|
B|-5-5-----5-5-----5-5-------8---|
G|-------------------------------|
D|-------------------------------|
A|-------------------------------|
E|-------------------------------|

And the other reverse guitar type one

e|-----5-7-----------------------|
B|-8-5-----5-5--8-7--------------|
G|------------------7------------|
D|-------------------------------|
A|-------------------------------|
E|-------------------------------|
Tap to rate this tab
# A B C D E F G H I J K L M N O P Q R S T U V W X Y Z