Guitaretab - guitar tabs
Song name
# A B C D E F G H I J K L M N O P Q R S T U V W X Y Z

Yeah Yeah Yeahs - Date With The Night tab

Yeah Yeah Yeahs
Date with the Night
Fever to Tell

by
Ben James
Slash1966@hotmail.com

Key

*-Harmonic
/-Slide
h-Hammer-on
~-sustained

Intro-Distortion
  1.                                                              7.
E|--------|----------|----------|----------|----------|----------|----------|
B|--------|----------|----------|----------|----------|----------|----------|
G|--------|----------|----------|----------|----------|----------|----------|
D|--------|----------|----------|----------|----------|----------|----------|
A|-----*--|-------*--|-------*--|-------*--|-------*--|-------*--|----*-----|
E|-0-0-5--|-00-00-5--|-00-00-5--|-00-00-5--|-00-00-5--|-00-00-5--|-00-5-----|

Verse-Distortion

  1.
E|----------|----------|----------|----------|
B|----------|----------|----------|----------|
G|----------|----------|----------|----------|
D|----------|----------|----------|----------|
A|----------|----------|----------|----------|
E|-0-0-15h17|-0-0-10h12|-0-0-15h17|-0-0-10h12|
                                   8.
E|----------|----------|----------|----------|
B|----------|----------|----------|----------|
G|----------|----------|----------|----------|
D|----------|----------|----------|----------|
A|----------|----------|----------|----------|
E|-0-0-15h17|-0-0-10h12|-0-0-15h17|-0-0-10h12|

E|----------|----------|
B|----------|----------|
G|----------|----------|
D|-7-7-7-7--|-5-5-5-5--|
A|-7-7-7-7--|-5-5-5-5--|
E|-5-5-5-5--|-3-3-3-3--|
  1.
E|----------|----------|----------|----------|
B|----------|----------|----------|----------|
G|----------|----------|----------|----------|
D|----------|----------|----------|----------|
A|----------|----------|----------|----------|
E|-0-0-15h17|-0-0-10h12|-0-0-15h17|-0-0-10h12|

E|----------|----------|----------|----------|
B|----------|----------|----------|----------|
G|----------|----------|----------|----------|
D|----------|----------|----------|----------|
A|----------|----------|----------|----------|
E|-0-0-15h17|-0-0-10h12|-0-0-15h17|-0-0-10h12|
                                   12.
E|----------|----------|----------|----------|
B|----------|----------|----------|----------|
G|----------|----------|----------|----------|
D|----------|----------|----------|----------|
A|----------|----------|----------|----------|
E|-0-0-15h17|-0-0-10h12|-0-0-15h17|-0-0-10h12|

E|----------|----------|
B|----------|----------|
G|----------|----------|
D|-9-9-9-9--|-7-7-7-7--|
A|-9-9-9-9--|-7-7-7-7--|
E|-7-7-7-7--|-5-5-5-5--|

Chorus-Distortion
  1.                                                             8.
E|--------|--------|--------|--------|--------|--------|--------|--------|
B|--------|--------|--------|--------|--------|--------|--------|--------|
G|--------|--------|--------|--------|--------|--------|--------|--------|
D|--------|--------|--------|--------|--------|--------|--------|--------|
A|--------|--------|--------|--------|--------|--------|--------|--------|
E|-1/--/--|-1/--/--|-1/--/--|-1/--/--|-1/--/--|-1/--/--|-1/--/--|-1/--/--|

Verse-Distortion

1.
E|----------|----------|----------|----------|
B|----------|----------|----------|----------|
G|----------|----------|----------|----------|
D|----------|----------|----------|----------|
A|----------|----------|----------|----------|
E|-0-0-15h17|-0-0-10h12|-0-0-15h17|-0-0-10h12|
                                   8.
E|----------|----------|----------|----------|
B|----------|----------|----------|----------|
G|----------|----------|----------|----------|
D|----------|----------|----------|----------|
A|----------|----------|----------|----------|
E|-0-0-15h17|-0-0-10h12|-0-0-15h17|-0-0-10h12|

E|----------|----------|
B|----------|----------|
G|----------|----------|
D|-7-7-7-7--|-5-5-5-5--|
A|-7-7-7-7--|-5-5-5-5--|
E|-5-5-5-5--|-3-3-3-3--|
  1.
E|----------|----------|----------|----------|
B|----------|----------|----------|----------|
G|----------|----------|----------|----------|
D|----------|----------|----------|----------|
A|----------|----------|----------|----------|
E|-0-0-15h17|-0-0-10h12|-0-0-15h17|-0-0-10h12|

E|----------|----------|----------|----------|
B|----------|----------|----------|----------|
G|----------|----------|----------|----------|
D|----------|----------|----------|----------|
A|----------|----------|----------|----------|
E|-0-0-15h17|-0-0-10h12|-0-0-15h17|-0-0-10h12|
                                   12.
E|----------|----------|----------|----------|
B|----------|----------|----------|----------|
G|----------|----------|----------|----------|
D|----------|----------|----------|----------|
A|----------|----------|----------|----------|
E|-0-0-15h17|-0-0-10h12|-0-0-15h17|-0-0-10h12|

E|----------|----------|
B|----------|----------|
G|----------|----------|
D|-9-9-9-9--|-7-7-7-7--|
A|-9-9-9-9--|-7-7-7-7--|
E|-7-7-7-7--|-5-5-5-5--|

Chorus-Distortion
  1.                                                             8.
E|--------|--------|--------|--------|--------|--------|--------|--------|
B|--------|--------|--------|--------|--------|--------|--------|--------|
G|--------|--------|--------|--------|--------|--------|--------|--------|
D|--------|--------|--------|--------|--------|--------|--------|--------|
A|--------|--------|--------|--------|--------|--------|--------|--------|
E|-1/--/--|-1/--/--|-1/--/--|-1/--/--|-1/--/--|-1/--/--|-1/--/--|-1/--/--|
[ Tab from: http://www.guitaretab.com/y/yeah-yeah-yeahs/34889.html ]
Bridge-Distortion Chorus
  1.                                  5.
E|--------|--------|--------|--------|--------|--------|-13-/-/-|-/-/-/-/|
B|-3-/-/-/|-/-/-/-/|-/-/-/-/|-/-/-/-/|-/-/-/-/|-/-/-/15|--------|--------|
G|--------|--------|--------|--------|--------|--------|--------|--------|
D|--------|--------|--------|--------|--------|--------|--------|--------|
A|--------|--------|--------|--------|--------|--------|--------|--------|
E|--------|--------|--------|--------|--------|--------|--------|--------|

Middle 8-Clean

  1.
E|----------|----------|----------|----------|
B|----------|----------|----------|----------|
G|----------|----------|----------|----------|
D|----------|----------|----------|----------|
A|----------|----------|----------|----------|
E|-0-0-15h17|-0-0-10h12|-0-0-15h17|-0-0-10h12|

E|----------|----------|----------|----------|
B|----------|----------|----------|----------|
G|----------|----------|----------|----------|
D|----------|----------|----------|----------|
A|----------|----------|----------|----------|
E|-0-0-15h17|-0-0-10h12|-0-0-15h17|-0-0-10h12|

E|----------|----------|----------|----------|
B|----------|----------|----------|----------|
G|----------|----------|----------|----------|
D|----------|----------|----------|----------|
A|----------|----------|----------|----------|
E|-0-0-15h17|-0-0-10h12|-0-0-15h17|-0-0-10h12|
                                   16.
E|----------|----------|----------|----------|
B|----------|----------|----------|----------|
G|----------|----------|----------|----------|
D|----------|----------|----------|----------|
A|----------|----------|----------|----------|
E|-0-0-15h17|-0-0-10h12|-0-0-15h17|-0-0-10h12|

Solo- Distortion Chorus

E|-TREMELO-PICKING------|
B|-3////17\\3|-3///17\\3|
G|-----------|----------|
D|-----------|----------|
A|-----------|----------|
E|-----------|----------|


Middle 8-Clean
  1.
E|----------|----------|----------|----------|
B|----------|----------|----------|----------|
G|----------|----------|----------|----------|
D|----------|----------|----------|----------|
A|----------|----------|----------|----------|
E|-0-0-15h17|-0-0-10h12|-0-0-15h17|-0-0-10h12|

E|----------|----------|----------|----------|
B|----------|----------|----------|----------|
G|----------|----------|----------|----------|
D|----------|----------|----------|----------|
A|----------|----------|----------|----------|
E|-0-0-15h17|-0-0-10h12|-0-0-15h17|-0-0-10h12|

E|----------|----------|----------|----------|
B|----------|----------|----------|----------|
G|----------|----------|----------|----------|
D|----------|----------|----------|----------|
A|----------|----------|----------|----------|
E|-0-0-15h17|-0-0-10h12|-0-0-15h17|-0-0-10h12|
                                   16.
E|----------|----------|----------|----------|
B|----------|----------|----------|----------|
G|----------|----------|----------|----------|
D|----------|----------|----------|----------|
A|----------|----------|----------|----------|
E|-0-0-15h17|-0-0-10h12|-0-0-15h17|-0-0-10h12|

Solo- Distortion Chorus

E|-TREMELO-PICKING------|
B|-3////17\\3|-3///17\\3|
G|-----------|----------|
D|-----------|----------|
A|-----------|----------|
E|-----------|----------|

Break-Distortion
  1.                                                              7.
E|--------|----------|----------|----------|----------|----------|----------|
B|--------|----------|----------|----------|----------|----------|----------|
G|--------|----------|----------|----------|----------|----------|----------|
D|--------|----------|----------|----------|----------|----------|----------|
A|-----*--|-------*--|-------*--|-------*--|-------*--|-------*--|----*-----|
E|-0-0-5--|-00-00-5--|-00-00-5--|-00-00-5--|-00-00-5--|-00-00-5--|-00-5-----|

Verse-Distortion
  1.
E|----------|----------|----------|----------|
B|----------|----------|----------|----------|
G|----------|----------|----------|----------|
D|----------|----------|----------|----------|
A|----------|----------|----------|----------|
E|-0-0-15h17|-0-0-10h12|-0-0-15h17|-0-0-10h12|
                                   8.
E|----------|----------|----------|----------|
B|----------|----------|----------|----------|
G|----------|----------|----------|----------|
D|----------|----------|----------|----------|
A|----------|----------|----------|----------|
E|-0-0-15h17|-0-0-10h12|-0-0-15h17|-0-0-10h12|

E|----------|----------|
B|----------|----------|
G|----------|----------|
D|-7-7-7-7--|-5-5-5-5--|
A|-7-7-7-7--|-5-5-5-5--|
E|-5-5-5-5--|-3-3-3-3--|
  1.
E|----------|----------|----------|----------|
B|----------|----------|----------|----------|
G|----------|----------|----------|----------|
D|----------|----------|----------|----------|
A|----------|----------|----------|----------|
E|-0-0-15h17|-0-0-10h12|-0-0-15h17|-0-0-10h12|

E|----------|----------|----------|----------|
B|----------|----------|----------|----------|
G|----------|----------|----------|----------|
D|----------|----------|----------|----------|
A|----------|----------|----------|----------|
E|-0-0-15h17|-0-0-10h12|-0-0-15h17|-0-0-10h12|
                                   12.
E|----------|----------|----------|----------|
B|----------|----------|----------|----------|
G|----------|----------|----------|----------|
D|----------|----------|----------|----------|
A|----------|----------|----------|----------|
E|-0-0-15h17|-0-0-10h12|-0-0-15h17|-0-0-10h12|

E|----------|----------|
B|----------|----------|
G|----------|----------|
D|-9-9-9-9--|-7-7-7-7--|
A|-9-9-9-9--|-7-7-7-7--|
E|-7-7-7-7--|-5-5-5-5--|

Outro- Distortion

E|----------|------------|---||
B|----------|------------|---||
G|----------|------------|-9~||
D|-9-9-9-9--|-12-12-12-12|-9~||
A|-9-9-9-9--|-12-12-12-12|-7~||
E|-7-7-7-7--|-10-10-10-10|-0~||

Fin
Related for Date With The Night tab
Advertisement will be closed in 10 seconds