Song name
# A B C D E F G H I J K L M N O P Q R S T U V W X Y Z

Yeah Yeah Yeahs - Black Tongue tab

                      YEAH YEAH YEAHS - BLACK TONGUE

www.yeahyeahyeahs.com
Black Tongue
Standard tuning
(slipknotbos@hotmail.com)

Intro

|---------------|
|---------------|
|---------------|
|-6-6-6-6-6-6-6-|
|-6-6-6-6-6-6-6-|
|-4-4-4-4-4-4-4-| x4


Verse

|--------------(4b*)------------------| (*only played
|-------------------------------(2b*)-|   sometimes)
|-------------------------------------|
|-6-6-6-6-6-6-6---4-4-4-4-4-4-4-------|
|-6-6-6-6-6-6-6---4-4-4-4-4-4-4-------|
|-4-4-4-4-4-4-4---2-2-2-2-2-2-2-------|

Chorus?

|---------------------------------------------|
|---------------------------------------------|
|---------------------------------------------|
|---------------------------------------------|
|---------------------------------------------|
|-4-4-4-4-4-4-4-4-4-4-4-2-2-2-2-2-2-2-2-2-2-2-| Tremolo picking (fast picking)
   ah huh, ah huh, ah huh etc...

Bridge?

|--------------------------------------------------|
|--------------------------------------------------|
|--------------------------------------------------|
|--------------------------------------------------|
|-6-6-6-6-6-6-6-6-4-4-4-4-4-4-4-4------------------|
|----------------------------------4-4-4-4-4-4-4-4-| Tremolo picking


|---------------------------------------------------|
|---------------------------------------------------|
|---------------------------------------------------|
|---------------------------------------------------|
|-6-6-6-6-6-6-6-6-9-9-9-9-9-9-9-9-9-----------------|
|-----------------------------------4-4-4-4-4-4-4-4-| Tremolo picking
Tap to rate this tab
 
# A B C D E F G H I J K L M N O P Q R S T U V W X Y Z