Song name
# A B C D E F G H I J K L M N O P Q R S T U V W X Y Z

Yeah Yeah Yeahs - Cold Night tab

                      YEAH YEAH YEAHS - COLD NIGHT

www.yeahyeahyeahs.com
Yeah yeah yeahs
Fever to tell
Cold light
Standard tuning
(slipknotbos@hotmail.com)

Intro/Chorus
 
|--------------|------------------------|
|--------------|------------------------|
|----------9-9-|-5-5-5-5-5-5-5-5-5-5-5-5|
|-7-7------9-9-|-5-5-5-5-5-5-5-5-5-5-5-5|
|-7-7------7-7-|-3-3-3-3-3-3-3-3-3-3-3-3|
|-5-5----------|------------------------| Play x2 but at the end of the second time play...

|-------------------------|
|-------------------------|
|-7-7-7-7-7-7-7-7-7-7-7-7-|
|-7-7-7-7-7-7-7-7-7-7-7-7-|
|-5-5-5-5-5-5-5-5-5-5-5-5-|
|-------------------------|

Verse

|------------------|---------------------|----------------------------------------------------|
|------------------|---------------------|----------------------------------------------------|
|------------------|---------------------|----------------------------------------------------|
|------------------|---------------------|----------------------------------------------------|
|------------------|---------------------|----------------------------------------------------|
|-0-12-0-12-0-12-0-|-0-12-0-10-0-7-0-3/12|-0-12-0-12-0-12-0-0-13-0-13-0-13-0-0-15-0-15-0-15-0-|

Outro

|--------------|
|--------------|
|-14-14-14-14b-|
|--------------|
|--------------|
Tap to rate this tab
 
# A B C D E F G H I J K L M N O P Q R S T U V W X Y Z