Song name
# A B C D E F G H I J K L M N O P Q R S T U V W X Y Z

Yeah Yeah Yeahs - Slave tab

Song: Slave
Artist: Yeah Yeah Yeahs
From the LP 'Mosquito'

Tabbed by: L.A Rai


(Nick picks these chords)
E-10--9---7--14---10--9---7--5--------|
B-12--10--8--14---12--10--8--7--------|
G-11--9---7--14---11--9---7--6--------|
D-9---7---5--16---9---7---5--4--------|
A-------------------------------------|
E-------------------------------------|

It eats your soul, like tears you fall, my slave
You steal, you heed the call, my slave

E-10--14--15--17---------|
B-12--15--17--19---------|
G-11--14--16--18---------|
D-9---12--14--16---------|
A------------------------|
E------------------------|
(x2)

The keys, the keys are gone, my slave
You keep me beating on

E-10--9----------------------------|
B-12--10---------------------------|
G-11--9----------------------------|
D-9---7----------------------------|
A--------7-7--10-10----------------|
E--------------------5-5-7-7-------|

Main riff:
E-----------------------------------|
B----------------------8-8------7-7-|
G------7-7----6-6-------------------|
D-----------------------------------|
A-----------------/7-7------5-5-----|
E-/7-7----5-5-----------------------|

It eats your soul, like tears you fall, my slave
You steal, you heed the call, my slave

E-7--10--7--9----7--5--3--2---------|
B-7--10--8--10---7--5--3--2---------|
G-7--11--9--11---7--6--4--2---------|
D-9--12--9--11---9--7--5--4---------|
A-9--12--7--9----9--7--5--4---------|
E-7--10----------7--5--3--2---------|

You keep me, you keep me, your slave
You keep me, you keep me, your slave

Repeat Main Riff


E-10--9-----------------------------|
B-12--10----------------------------|
G-11--9-----------------------------|
D---------2-2-5-5---7-7-9-9---------|
A---------2-2-5-5---7-7-9-9---------|
E---------0-0-3-3---5-5-7-7---------|

On my own
You keep me, you keep me
On the throne
Heads down all day
On my own
You keep me, you keep me
On the throne
Heads down all day


Check out my music if you get a chance:

http://soundcloud.com/laura-rai

Thanks!
Tap to rate this tab
 
# A B C D E F G H I J K L M N O P Q R S T U V W X Y Z