Guitaretab - guitar tabs
Song name
# A B C D E F G H I J K L M N O P Q R S T U V W X Y Z

Yeah Yeah Yeahs - Maps Acoustic tab

On the verses only strum down on the open G, everything else is strumming up, until the 
at the end.


 Intro                4x
e|-----------------------|
B|--8-----8-----8--------|
G|--0-0-0-0-0-0-0-0------|
D|-----------------------|
A|-----------------------|
E|-----------------------|

 Verse
e|--7-----7-----7-------------------7-----7-----7--10----10----10---7-----|
B|--8-----8-----8---8-----8-----8---8-----8-----8---8-----8-----8---8-----|
G|----0-0---0-0---0-0-0-0-0-0-0-0-0---0-0---0-0---0---0-0---0-0---0---0-0-|
D|------------------------------------------------------------------------|
A|------------------------------------------------------------------------|
E|------------------------------------------------------------------------|

e|-7-----7------------------12----12----12--10-----10-10-10-10-----------|
B|-8-----8---8-----8-----8---8-----8-----8---8---8--8--8--8--8-----------|
G|---0-0---0-0-0-0-0-0-0-0-0---0-0---0-0---0---0-0--0--0--0--0-----------|
D|-----------------------------------------------------------------------|
A|-----------------------------------------------------------------------|
E|-----------------------------------------------------------------------|

Chorus
C                G6
Wait, they donít love you like I love you;
Em               G6
Wait, they donít love you like I love you;
C            G6
Ma-a-a-a-a-a-a-a-a-a-a-aps;
D                G
Wait! They donít love you like I love you.

Pre Verse
e|------7-7-7---5--------------------------------------------------|
B|--8---8-8-8---8---8-----8-----8---5-----5----s3--s8-----8-----8--|
G|--0-0-------0---0-0-0-0-0-0-0-0-0-0-0-0-0-0-0-0-0-0-0-0-0-0-0-0--|
D|-----------------------------------------------------------------|
A|-----------------------------------------------------------------|
E|-----------------------------------------------------------------|

Verse (same as first)
e|--7-----7-----7-------------------7-----7-----7--10----10----10---7-----|
B|--8-----8-----8---8-----8-----8---8-----8-----8---8-----8-----8---8-----|
G|----0-0---0-0---0-0-0-0-0-0-0-0-0---0-0---0-0---0---0-0---0-0---0---0-0-|
D|------------------------------------------------------------------------|
A|------------------------------------------------------------------------|
E|------------------------------------------------------------------------|

e|-7-----7------------------12----12----12--10-----10-10-10-10-----------|
B|-8-----8---8-----8-----8---8-----8-----8---8---8--8--8--8--8-----------|
G|---0-0---0-0-0-0-0-0-0-0-0---0-0---0-0---0---0-0--0--0--0--0-----------|
D|-----------------------------------------------------------------------|
A|-----------------------------------------------------------------------|
E|-----------------------------------------------------------------------|
[ Tab from: http://www.guitaretab.com/y/yeah-yeah-yeahs/59653.html ]
Chorus
C                G6
Wait, they donít love you like I love you;
Em               G6
Wait, they donít love you like I love you;
C            G6
Ma-a-a-a-a-a-a-a-a-a-a-aps;
D                G6
Wait! They donít love you like I love you.
C                G6
Wait, they donít love you like I love you;
Em               G6
Maaaaaaaaaaaaaaaaaaaaaaaaaaaaaaaaaaaaaaaps;
C                G6
Wait, they donít love you like I love you;
D                G
------------------------------------------

Bridge
e|---------------------------------------------------------------------|
B|------0-----0------0-------------------0-----0-----0-----------------|
G|--------0------------0--------0---0------0---------------------0---0-|
D|--2s5-----4---4-2-------0------------5-----4---4-9---9---0-----------|
A|---------------------------------------------------------------------|
E|----------------------3---3-5---7----------------------3---3-5---7---|

e|--------------------------------------------------------------------|
B|------0-----0---0--------------------0-------0-----0---0------------|
G|----0-----0-------0---------0---0------0-------0--------------------|
D|--5-----4-----2-------0------------5-----4-9-----9---4---5---5s0----|
A|--------------------------------------------------------------------|
E|--------------------3---3-5---7-------------------------------------|

Pre Chorus
e|--3-3-3-3-3-3-3-3-----3-------3--------3---3-3---3------3---3-3---3--|
B|--3---3---3---3-------3-------3--------3---3-3---3------3---3-3---3--|
G|--0---0---0---0-----0-------0---0-------------------0-0---0-----0----|
D|------------------2-----2-0------------------------------------------|
A|---------------------------------------------------------------------|
E|-----------------------------------3-3---3-----3---------------------|

e|------3-----3---3-----3-------3-------3-----3---3-----3---3-3-3-3----|
B|------3-----3---3-----3-------3-------3-----3---3-----3---3-3-3-3----|
G|--0-0---0-0---0-----0---0---0---0---0-------------0-0---0-0-0-0-0----|
D|------------------2--------------------------------------------------|
A|--------------------------0------------------------------------------|
E|----------------------------------3-----3-3---3----------------------|


Chorus
C                G6
Wait, they donít love you like I love you;
Em               G6
Wait, they donít love you like I love you;
C            G6
Ma-a-a-a-a-a-a-a-a-a-a-aps;
D                G6
Wait! They donít love you like I love you.
C                G6
Wait, they donít love you like I love you;
Em               G6
Maaaaaaaaaaaaaaaaaaaaaaaaaaaaaaaaaaaaaaaps;
C                G6
Wait, they donít love you like I love you;
D                G
------------------------------------------


Tag Out/Bridge
e|---------------------------------------------------------------------|
B|------0-----0------0-------------------0-----0-----0-----------------|
G|--------0------------0--------0---0------0---------------------0---0-|
D|--2s5-----4---4-2-------0------------5-----4---4-9---9---0-----------|
A|---------------------------------------------------------------------|
E|----------------------3---3-5---7----------------------3---3-5---7---|

e|----------------------------------------------------------0---------|
B|------0-----0---0--------------------0-------0-----0------0---------|
G|----0-----0-------0---------0---0------0-------0----------0---------|
D|--5-----4-----2-------0------------5-----4-9-----9--------0---------|
A|----------------------------------------------------------2---------|
E|--------------------3---3-5---7-----------------------2-2-3---------|


My first real tab, email me if any comments/suggestions.

theguy99x@hotmail.com

or message me on myspace at

www.myspace.com/jacksonbadass

thanks!
Related for Maps Acoustic tab