Song name
# A B C D E F G H I J K L M N O P Q R S T U V W X Y Z

Yeah Yeah Yeahs - Phenomena tab

Yeah Yeah Yeahs - Phenomena
i think this is about 99% right

(00:12)x3
e-------------------------------------------------------|
B-------------------------------------------------------|
G-------------------------------------------------------|
D-------------------------------------------------------|
A------9-7---5---5---5/9--------------------------------|
E--0-0-----7---7---7------------------------------------|

on the 4th time...
e---------------------------------------------------|
B---------------------------------------------------|
G---------------------------------------------------|
D---------------------------------------------------|
A------9-7---5--------------------------------------|
E--0-0-----7-0--------------------------------------|

(00:24)x2
e-------------------------------------------------------|
B-------------------------------------------------------|
G-------------------------------------------------------|
D-------------------------------------------------------|
A------9-7---5---5---5/9--------------------------------|
E--0-0-----7---7---7------------------------------------|

(00:30)
e--------------------------------------|
B--------------------------------------|
G--------------------------------------|
D--12--11-10---------------------------|
A--10--9--8----------------------------|
E--------------------------------------|

e-------12-----------------------------------------------|
B-------12-----------------------------------------------|
G-------12-----------------------------------------------|
D-----------7-7-7-7-7-7-7--------------------------------|
A-----------5-5-5-5-5-5-5--------------------------------|
E--0-0---------------------------------------------------|

once more...
(00:36)x2
e-------------------------------------------------------|
B-------------------------------------------------------|
G-------------------------------------------------------|
D-------------------------------------------------------|
A------9-7---5---5---5/9--------------------------------|
E--0-0-----7---7---7------------------------------------|

(00:43)
e--------------------------------------|
B--------------------------------------|
G--------------------------------------|
D--12--11-10---------------------------|
A--10--9--8----------------------------|
E--------------------------------------|

e-------12-----------------------------------------------|
B-------12-----------------------------------------------|
G-------12-----------------------------------------------|
D-----------7-7-7-7-7-7-7-7------------------------------|
A-----------5-5-5-5-5-5-5-5------------------------------|
E--0-0---------------------------------------------------|

(00:49)x2
e-------------------------------------------------------|
B-------------------------------------------------------|
G--12-12-12--11-11--9-9-9--7-7--9-9---------------------|
D-----------------------------------9-7-7-7-7-7-7-7-7---|
A-------------------------------------5-5-5-5-5-5-5-5---|
E-------------------------------------------------------|

(01:01)x4
e-----------------------|
B-----------------------|
G-----------------------|
D-----------------------|
A--2-2-2-2--5-12--------|
E--0-0-0-0--3-10--------|

(01:13)x4
e------------------------|
B------------------------|
G------------------------|
D------------------------|
A------------5-12--------|
E--0-0-0-0-0-3-10--------|

(01:25)x3(this is kind of faint so listen carefully)x3
e------------------------|
B-----------15b17--------|
G------------------------|
D------------------------|
A------------------------|
E--0-5-8-----------------|

4th time...
e------------------------|
B------------------------|
G------------------------|
D------------------------|
A------------------------|
E--0-5-8-----------------|

[-----the "Oooo"ing part-----]

(01:50)(i think x12? i cant really tell since its just hitting an open note over and over again)
e------------------------------|
B------------------------------|
G------------------------------|
D------------------------------|
A------------------------------|
E--0-0-0-0-0--0-0-0-0-0--0-0-0-|

(02:27)x4
e-----------------------|
B-----------------------|
G-----------------------|
D-----------------------|
A--2--5-12--------------|
E--0--3-10--------------|

(02:39)x4
e------------------------|
B------------------------|
G------------------------|
D------------------------|
A------------5-12--------|
E--0-0-0-0-0-3-10--------|

(03:04)x4
e-------------------------------------------------------|
B-------------------------------------------------------|
G--12-12-12--11-11--9-9-9--7-7--9-9---------------------|
D-----------------------------------9-7-7-7-7-7-7-7-7---|
A-------------------------------------5-5-5-5-5-5-5-5---|
E-------------------------------------------------------|

(03:28)(keep playing this till end at 04:12)
e------------------------------|
B------------------------------|
G------------------------------|
D------------------------------|
A------------------------------|
E--0-0-0-0-0--0-0-0-0-0--0-0-0-|

Legend:
/ - slide up
 - slide down
b - bend to

this song is pretty cool and easy, the intro caught my ears and made me want to make 
tab since there were none on "Phenomena".  listen to the song for the timing.  if you have 
questions or see any mistakes,IM me on AIM at: CrazyJim25

Good Luck
Tap to rate this tab
# A B C D E F G H I J K L M N O P Q R S T U V W X Y Z