Song name
# A B C D E F G H I J K L M N O P Q R S T U V W X Y Z

Year Long Disaster - Cold Killer tab

Year Long Disaster - "Cold Killer"

tabbed by:Scott McClure
email:smcclure09@yahoo.com

Standard Tuning

Intro:
e----------------------------------------------|
B----------------------------------------------|
G----------------------------------------------|
D----------------------------------------------|
A-5-3-----x-5-3------------------------3-------|
E-----5-5-------5-5-x-3-x-3-5----5-3-5---5-3-5-|

Verses:
e-----------------------------------------------------------|
B-----------------------------------------------------------|
G-----------------------------------------------------------|
D-----------------------------------------------------------|
A-5-3-----x-5-3-----------------5-3-----x-5-3-------------3-|
E-----5-5-------5-5-x-3-x-3-5-------5-5-------5-5-x-3-x-3---|

e----------------------------------------------|
B----------------------------------------------|
G----------------------------------------------|
D----------------------------------------------|
A-5-3-----x-5-3------------------------3-------|
E-----5-5-------5-5-x-3-x-3-5----5-3-5---5-3-5-|

Chorus:
"I'm a cold killer..."
  A    G       D   F  D  A     C
e--------------------------------|
B--------------------------------|
G----------4/5/7------7------7/5-|
D-7----5---4/5/7---3--7--7---7/5-|
A-7----5---2/3/5---3--5--7---5/3-|
E-5----3-----------1-----5-------|

"Cold killer..."
  A      D   G      D   F  D  A
e-------------------------------|
B-------------------------------|
G----4/5/7------7/5/7------7----|
D-7--4/5/7---5--7/5/7---3--7--7-|
A-7--2/3/5---5--5/3/5---3--5--7-|
E-5----------3----------1-----5-|

Bridge:
  G     G     G     G A
e-----------------------    ----------------|
B-----------------------    ----------------|
G-----------------------    ----------------|
D-5-----5-----5-----5-7-    ----------------|
A-5-----5-----5-----5-7-    --------3-------|
E-3-x-x-3-x-x-3-x-x-3-5-(x3)--5-3-5---5-3-5-|

http://www.yearlongdisaster.com/
Tap to rate this tab
# A B C D E F G H I J K L M N O P Q R S T U V W X Y Z