Song name
# A B C D E F G H I J K L M N O P Q R S T U V W X Y Z

Years Around The Sun - Sinclair tab

www.yearsaroundthesun.com

-----------------------------------------------------------------
Sinclair – Years Around the Sun
-----------------------------------------------------------------
Tabbed by: Staydr
Email: 
Tuning: Standard
   Intro/Verse
E|---------------------------------------------------------------|
B|---------------------------------------------------------------|
G|--------9-----9--6-----6----6------------6------6--------7-6---|
D|-7--7------7--------7----7-----7---9--9-----9------7--7------7-|
A|---------------------------------------------------------------|
E|---------------------------------------------------------------|
   Bridge
E|---------------------------------------------------------------|
B|---------------------------------------------------------------|
G|---------------------------------------------------------------|
D|--7-----7-----7-----7---------11------11------11-----11--------|
A|-----9-----9-----9-----9--10------10-----10------10------------|
E|---------------------------------------------------------------|
   Chorus 1 (Repeat Twice)   We float on broke roads that mend…
E|---------------------------------------------------------------|
B|---------6---------------11------------------------------6h7-6-|
G|------7-----7---------11-----11----------7-----7------7--------|
D|---9-----------9---9-------------9--5-5-----5------9-----------|
A|---------------------------------------------------------------|
E|---------------------------------------------------------------|

E|---------------------------------------------------------------|
B|---------6---------------11------------------------------------|
G|------7-----7---------11-----11----------7-----7------7----7---|
D|---9-----------9---9-------------9--5-5-----5------9-----9-----|
A|---------------------------------------------------------------|
E|---------------------------------------------------------------|

E|---------------------------------------------------------------|
B|---------------------------------------------------------------|
G|-----7-------7-------------------------------------------------|
D|--9------9-----------------------------------------------------|
A|---------------------------------------------------------------|
E|---------------------------------------------------------------|
   Chorus 2 We shuttered and sent our hearts…
E|---------------------------------------------------------------|
B|---------------------------------------------------------------|
G|------11--9-----9------------9-----9---------7-----7-- -6---6--|
D|---9---------11-----11--9--9-----9----9\4--4-----4---4----7---7|
A|---------------------------------------------------------------|
E|---------------------------------------------------------------|
   Outro Same as Intro/Verse

Tablature Notation

h - hammer on 
p - pull off 
b - bend string up
r - release bend
/ - slide up
\ - slide down
v - vibrato (or ~)
t - right hand tap
x - play 'note' with heavy muting
Tap to rate this tab
 
# A B C D E F G H I J K L M N O P Q R S T U V W X Y Z