Song name
# A B C D E F G H I J K L M N O P Q R S T U V W X Y Z

Years Around The Sun - Warm Jets tab

Hi, hope you enjoy this tab all you Years Around The Sun Fans!
Any problems contact me: Sandysaintsred22@hotmail.com
can you please rate this too!

/ : Slide

E |------------------------------------------------------------------------|
B |------------------------------------------------------------------------|
G |--------------------------------4/6-2-4-6-26-4-6-4-22-4-2-------------|
D |--------------------------------------------------------------4---------|
A |-4-4-2-2-4-0---0--------------------------------------------------------|
E |----------------------4-2-2---------------------------------------------|

E|---------------------------------------------2-0-|
B|-------------------------------------------2----2|
G|-4/6-2-4-6-26-4-6-4-22-4-2---------------------|
D|--------------------------------4----------------|
A|-------------------------------------------------|
E|-------------------------------------------------|

Tap to rate this tab
 
# A B C D E F G H I J K L M N O P Q R S T U V W X Y Z