Song name
# A B C D E F G H I J K L M N O P Q R S T U V W X Y Z

Yeasayer - Madder Red chords

Highlighted       Show chord diagrams
-------------------------------------------------------------------------------
			     Madder Red - Yeasayer
-------------------------------------------------------------------------------
Tabbed by: Joseph Barker
Email: joseph.barker83@gmail.com

Tuning: Standard
   D    Em   D   Em    D    Em   C    G    Am   Em   G    D 
e|---------------------------------------------------------------------------|
B|-------------------------------5----3----1----0----3-----------------------|
G|-2----4----2----4----2----4----5----4----2----0----4----2------------------|
D|-0----5----0----5----0----5-----------------------------0------------------|
A|-----(7)-------(7)(5)----(7)-----------------------------------------------|
E|---------------------------------------------------------------------------|

Sounds good if you kinda pluck at it.This is the main rift that is played throughout 
the song. Please email me if you have questions are want to correct anything. 
Tap to rate this tab
 
# A B C D E F G H I J K L M N O P Q R S T U V W X Y Z