Guitaretab - guitar tabs
Song name
# A B C D E F G H I J K L M N O P Q R S T U V W X Y Z

Yellow Monkey - Tatics tab

Intro  x2
|------------------------------------|
|----0-------0--------2-------1------|
|--0---0---0---0----3---3---2----2---|
|2-------2-------4--------3----------|
|------------------------------------|
|------------------------------------|

Cords (play trough solo)
	   Em      A       Am


Intro Solo
[ Tab from: http://www.guitaretab.com/y/yellow-monkey/28746.html ]
|---------------------------------------------------------
|-----8----10/12----12/10---10--10--10/8--10--10/12/10/8--
|--9----9------------------------------------------------9
|---------------------------------------------------------
|---------------------------------------------------------
|---------------------------------------------------------


Verse Cords
KIRA   tto    shita,  kim  i no  me  ni------------

Em      F#       B      C       D#     G

Chorus Cords

hageshiku Lady    Ah gimme your love----------

G             Bm           C                    B

Play these cords when there is a solo or no singing
Em              A               Am

Related for Tatics tab