Yellow Ostrich - Whale Acoustic tab

Drop D


intro:

"oh oh"
e-----------------------|
B-----------------------|
G-----------------------|
D--12--12--12--12--12---|   (x alot)
A-----------------------|
E-0---0---0---0---0-----|

then the verse/chorus thing

e----------|
B----------|
G-11--5--4-|
D-12--x----|(5)
A-12--7--5-|
E-0---0--0-|


(Bridge?) Ive been swimming...:

e--------------|
B--------------|
G--------------|
D--x---x---x---|
A--x---x---x---|
E--0--7--5-----|.repeat
 tell me if i got something wrong. :]

band site: http://www.yellowostrich.com/
Tap to rate this tab
 
# A B C D E F G H I J K L M N O P Q R S T U V W X Y Z