Song name
# A B C D E F G H I J K L M N O P Q R S T U V W X Y Z

Yellow Ostrich - Mary tab

-----------------------------------------------------------------
Mary (alternative) ----- Yellow Ostrich
-----------------------------------------------------------------
Tabbed by: Jbongi14
Tuning: EBGDAE (standard)

Tabbed from the youtube video "Yellow Ostrich-Mary(Live from the big ugly yellow couch)"

This is the version he plays in the alternative version of the song, as it is simpler 
and easier to sing over. Really easy but cool sounding song.

If you want to make it more complicated, you can add in the notes from the barre chords 
to make it more complex.

E|-----------------------------------------|
B|-----------------------------------------|
G|-----------------------------------------|
D|---6---6---6-----6----6---6---6-----6----|  x6
A|--------------------4---4---4---4h6------|
E|-4---4---4---4h6-------------------------|

E|---------------------------------------------------------------|
B|---------------------------------------------------------------|
G|---------------------------------------------------------------|
D|---10---10---10---10---8---8---6---6---------------------------|
A|-8----8----8----8----6---6---4---4-----------------------------|x2 then
E|---------------------------------------------------------------|back to top
Tap to rate this tab
 
# A B C D E F G H I J K L M N O P Q R S T U V W X Y Z