Song name
# A B C D E F G H I J K L M N O P Q R S T U V W X Y Z

Yellow Red Sparks - Buy Me Honey chords

Highlighted       Show chord diagrams
                             BUY ME HONEY - Yellow, Red Sparks
-----------------------------------------------------------------------------
Tabbed by: sglucs
E-mail: sglucs@gmail.com

Based off of the following live recording: https://www.youtube.com/watch?v=LvqTosbW1W8

...de Jello, Red Essparks!

Tuning: Standard
Capo: III

F#m7 - 022033
A - 320033
Esus4 - xx0233
B7sus4 - x02033
B7sus4* - x02233
Dadd9 - x32033
A/G# - 2x0033

Verse 1:
Dadd9         B7sus4  Am (Riff 1)
Whatcha gonna buy me  honey?
Dadd9         B7sus4    Am (Riff 1)
Whatcha gonna soften me up with tonight?
Dadd9      B7sus4     Am (Riff 1)
Why do you think that Im running?
Dadd9   B7sus4       Am                  D (Riff 2)
Get out quickly get out from your knife!


Chorus:
G                      Em
Theres a high way, its my way
C                             G
Youre taking the lead from my hand
G                          Em
And the cold strength that Ive saved
C                              G
Will call in relief when youre mad


Verse 2:
Whatcha gonna buy me honey?
Whatcha gonna suffer yourself with tonight?
Why do you think that Im running?
Get out quickly get out from your knife (all your knives)

Chorus:
Theres a high way its my way
Youre taking the leap from my hand
And the cold strength that Ive saved
Well call in relief when you’re mad

Bridge:
Am             C
You sharpen me quickly
Am             D
You sharpen me well
Am                 D
You saw through me quickly
Am                 D (Riff 2)
You saw through me well

Chorus:
Theres a high way its my way
Im taking the lead from your hand
And the pulled strings that Ive frayed
That calls in relief when youre mad
To call in relief when youre mad


Riff 1:
     Am
e|-0---0---0------0---------------------------------------------------------|
B|-1---1---1------1---------------------------------------------------------|
G|-2---0---0h2---2----------------------------------------------------------|
D|-2---2---2-------2--------------------------------------------------------|
A|-0---0---2-------2--------------------------------------------------------|
E|-0------------------------------------------------------------------------|

Riff 2:
e|-2-----0-----2-----3------------------------------------------------------|
B|-3-----3-----3-----3------------------------------------------------------|
G|-2-----2-----2-----2------------------------------------------------------|
D|-0-----0-----0-----0------------------------------------------------------|
A|--------------------------------------------------------------------------|
E|--------------------------------------------------------------------------|



*   *   *   *   *   *|||||||||||||||||||||||||||||||||||||||||||||||
  *   *   *   *   *
*   *   *   *   *   *|||||||||||||||||||||||||||||||||||||||||||||||
  *   *   *   *   *
*   *   *   *   *   *|||||||||||||||||||||||||||||||||||||||||||||||
  *   *   *   *   *
*   *   *   *   *   *|||||||||||||||||||||||||||||||||||||||||||||||

||||||||||||||||||||||||||||||||||||||||||||||||||||||||||||||||||||

||||||||||||||||||||||||||||||||||||||||||||||||||||||||||||||||||||

||||||||||||||||||||||||||||||||||||||||||||||||||||||||||||||||||||

Proud American

***********************************
| /   slide up
| \   slide down
| H   hammer-on
| p   pull-off
| ~   vibrato
| +   harmonic
| x   Mute note
| B   Bend
| pb  Pre-bend
| br  Bend release
| pbr Pre-bend release
| brb Bend release bend

************************************
Tap to rate this tab
# A B C D E F G H I J K L M N O P Q R S T U V W X Y Z